Log in

One click and you are in

Login with Facebook Login with Google

Why sign up and log in

Guitar Tabs Explorer
The Regrettes bass tabs for Here you go

Bass tabs

Intro: 0:00

G|----------------------------------------------------------------|
D|----------------------------------------------------------------|
A|3--3--3---------3--3--3---------5--5--5---------5--5--5---------|
E|----------5-3-3-----------5-3-3-----------5-3-3-----------5-3-3-|

Verse 1: 0:11

G|----------------------------------------------------------------|
D|----------------------------------------------------------------|
A|3--3--3---------3--3--3---------5--5--5---------5--5--5---------|
E|----------5-3-3-----------5-3-3-----------5-3-3-----------5-3-3-| x2


Pre-Chorus: 0:32

G|----------------------------------------------------------------|
D|----------------------------------------------------------------|
A|----------------------------------------------------------------|
E|----------------------------------------------------------------|


Chorus: 0:43

G|-------------------------------------------------------------------------|
D|---------5/10-10------------5/10-10------------7/12-12-------------------|
A|3--3--3------------3--3--3------------5--5--5------------5--5--5---------|
E|-------------------------------------------------------------------3-3---| x2


Post-Chorus: 1:05

G|----------------------------------------------------------------|
D|----------------------------------------------------------------|
A|3--3--3---------3--3--3---------5--5--5---------5--5--5---------|
E|----------5-3-3-----------5-3-3-----------5-3-3-----------5-3-3-|


Verse 2: 1:16

G|----------------------------------------------------------------|
D|----------------------------------------------------------------|
A|3--3--3---------3--3--3---------5--5--5---------5--5--5---------|
E|----------5-3-3-----------5-3-3-----------5-3-3-----------5-3-3-| x2


Pre-Chorus: 1:37

G|----------------------------------------------------------------|
D|----------------------------------------------------------------|
A|----------------------------------------------------------------|
E|----------------------------------------------------------------|


Chorus: 1:48

G|-------------------------------------------------------------------------|
D|---------5/10-10------------5/10-10------------7/12-12-------------------|
A|3--3--3------------3--3--3------------5--5--5------------5--5--5---------|
E|-------------------------------------------------------------------3-3---| x2


Bridge: 2:09

G|----------------------------------------------------------------|
D|----------------------------------------------------------------|
A|3--3--3---------3--3--3---------5--5--5---------5--5--5---------|
E|----------5-3-3-----------5-3-3-----------5-3-3-----------5-3-3-| x2


Pre-Chorus: 2:31

G|------------------------------------------------|
D|------------------------------------------------|
A|------------------------------------------------|
E|------------------------------------------------|


Chorus: 2:39

G|-------------------------------------------------------------------------|
D|---------5/10-10------------5/10-10------------7/12-12-------------------|
A|3--3--3------------3--3--3------------5--5--5------------5--5--5---------|
E|-------------------------------------------------------------------3-3---| x2


Outro: 3:00

G|----------------------------------------------------------------|
D|----------------------------------------------------------------|
A|3--3--3---------3--3--3---------5--5--5---------5--5--5---------|
E|----------5-3-3-----------5-3-3-----------5-3-3-----------5-3-3-|


G|----------------|
D|----------------|
A|3---------------|
E|----------------|

Almost there ...

Sign in to get your own page with links to favourite songs and more. You are just one click away...

Login with Facebook Login with Google