Log in

One click and you are in

Login with Facebook Login with Google

Why sign up and log in

Guitar Tabs Explorer
The Refreshments tabs for Interstate

Guitar tabs with lyrics

"Interstate"
by:THE REFRESHMENTS
from:Fizzy Fuzzy Big & Buzzy
tabbed by:J-Punk

NOTES:
4/4 with a triplet-type shuffle. I'm not trying to act like a music genius or anything,
but this is a mid-fast tempo song that feels kinda half-time 'cuz  the chords are held for
2 bars in the intro/verses. Don't take this tab to heart! These (as with all songs I tab out)
are my best guesses. Anyways, a good Refreshments song.

RIFFS:

riff 1           x3
e:--3-2-----|-0----|---------|-------------|
B:------3---|---3-*|-3/5-3---|-3/5-3-0-----|<--He uses too
G:--------0-|------|-2/4---0-|-2/4-----2-0-|  many fills to
D:----------|------|-------0-|-------------|  tab in these
A:----------|-----*|---------|-------------|  2 bars
E:----------|------|---------|-------------|
                                        ______________________ _________________

riff 2                                 |1.                    |2.
e:---|---|---|---------|-----|---------|---|------------------|-2-2-|-3-0-2-2-2-|
B:---|---|---|---------|-----|---------|---|-----------------*|-----|-----------|
G:---|---|---|-2h4p2-0-|-4h5-|-4h5-4h5-|---|-----2------------|-----|-----------|
D:---|---|---|---------|-----|---------|---|-0h2---0-0h2p0----|-----|-----------|
A:---|---|---|---------|-----|---------|---|---------------2-*|-----|-----------|
E:---|---|---|---------|-----|---------|---|------------------|-----|-----------|

RYTHYMS:
rythym 1:|A chord diagramG+G|A chord diagramG MajorG|A chord diagramE minorEm|Em|A chord diagramC majorC|C|A chord diagramG+G|A chord diagramG MajorG|
rythym 2:|A chord diagramE minorEm|Em|A chord diagramC majorC|C|A chord diagramA minorAm|Am|A chord diagramC majorC|C|A chord diagramE minorEm|Em|A chord diagramC majorC|C|A chord diagramA minorAm|Am|A chord diagramD MajorD|D|
rythym 3:|A chord diagramG+G A chord diagramD MajorD|A chord diagramC majorC A chord diagramG+G|A chord diagramG MajorG A chord diagramD MajorD|A chord diagramC majorC A chord diagramG+G|A chord diagramA minorAm|Am|A chord diagramC majorC|A chord diagramD MajorD|

SONG STRUCTURE:
-->play riff 1 & rythym 1 (both x2)
-->Play riff 2 & rythym 2 (both x1) over:
     Well the fact of the ....
-->Play riff 1 & rythym 1 (both x1)
-->Play riff 2 & rythym 2 (both x1) over:
     Well you should have ....
-->Play rythym 3 (x1) over:
     Handgun and a bottle ....
-->Solo for 16 bars over rythym 2 (x1)
-->Play riff 1 & rythym 1 (both x1)
-->Play riff 2 & rythym 2 (x1) over:
     Last back doesn't ....
-->Play rythym 3 (x2) over:
     Handgun and a bottle ....
-->Solo for 16 bars over rythym 2 (x1)
-->Solo over rythym 3 (x4) and:
     Handgun and a bottle of ....
-->Solo over rythym 3 (x1) and fade
______________________________________
Send corrections, comments, etc. to:
J-Punk (kalwin@seidata.com)

Almost there ...

Sign in to get your own page with links to favourite songs and more. You are just one click away...

Login with Facebook Login with Google