Log in

One click and you are in

Login with Facebook Login with Google

Why sign up and log in

Guitar Tabs Explorer
Reel Big Fish bass tabs for Trendy

Bass tabs with lyrics

Trendy
 reel big fish
 tabbed by:another reel BIG fan
 INTRO
     ------------   -------------------------------------------------------
 guitar ------------ REST -------------------------------------------------------
 part  ------------   -3--1-----------33--1-----------3--1-----------33--1---
 then  -35-0123----   ------3-35-0123-------3-35-0123------3-35-0123-------3-

           its not so bad being trendy part
           riff1
    ----------- ----------------3-----4-7-4---5-4-----------
 clean ----------- -------3----2-5--5--5------5-----5--5-5-3-2-
 guitar ---3-20---- ---2-5--5-3---------------------------------
 part  -------3--- -3------------------------------------------

                          end of riff1
           ----------------3-----4-7-4---5-4---------- repeat
           -------3----2-5--5--5------5-----5--3-2-0-- riff1
           ---2-5--5-3-------------------------------- once
           -3----------------------------------------- then rest


 labamba! part
 riff2                             end of riff2
       p  p        p  p        p  p
 ------------7----7-4--------------7----7-4--------------7----7-4-----------
 ----------------5---------------------5---------------------5-------------- REST
 ----3-----5---------------3-----5---------------3-----5---------------3----
 -3-----1---------------3-----1---------------3-----1---------------3-----1-

 EVERYBODY DOES IT PART

 -----------------------------------------------------  repeat -----------2-3-4-5-3-2------
 ------5-3-0----------------------5-3-0-------------5- 4 times ---2-3-4-5-------------5----
 ----5-------5--3-2-3-5-4-3-----5-------5--3-2-3-5---- then play -3-----------------------5-5
 -3--------------------------3------------------------  this  ----------------------------
             p  p        p  p        p  p
  play   ------------7----7-4--------------7----7-4--------------7----7-4------------7-------
 riff2   ----------------5---------------------5---------------------5-----------------------
 then play ----3-----5---------------3-----5---------------3-----5---------------3---5---------
 riff1   -3-----1---------------3-----1---------------3-----1---------------3----------8-7-5-
  fast part
 ----------------------------------------------------------------------------------2-3-5-
 ----------------------------------------------------------------------------2-3-5-------
 -----2-3------2-3------2-3------2-3------2-3------2-3------2-3-55555555-3-5-------------
 3333-----3333-----3333-----3333-----3333-----3333-----3333------------------------------
 slap bass part
      t p t p       outro
 --------------------     --------- clean --------------
 ------------5---5--- repeat  --------- guitar --------------
 -3--1--------------- 3 times -3--1---- part -3--2-0-------
 -------3--3---3-----     ---------    --------3---3-
  listen to the cd to get the right timing rythm.

Almost there ...

Sign in to get your own page with links to favourite songs and more. You are just one click away...

Login with Facebook Login with Google