Log in

One click and you are in

Login with Facebook Login with Google

Why sign up and log in

Guitar Tabs Explorer
Lou Reed bass tabs for Walk on the wild side

Bass tabs

-------------------------------------------------------
WALK ON THE WILD SIDE – Lou Reed
-------------------------------------------------------

Tabbed By :Sausage Biskit
e-mail:cowcasa@sbcglobal.net
Tuning:Tune E up to F
This is actually played with 2 basses, so good luck.
I recommend tapping it.

Intro
G|-9-----9/14---17\9------------------------------
D|-------------------x2--------------------------
A|------------------------------------------------
F|-7-----7\0-----0/7------------------------------


Verse
G|-9-----9/14---17\9--|9---10--14--12-------------
D|------------------x2--------------that’s about it.--
A|--------------------|-----------(10)- variations can
F|-7-----7\0-----0/7-- |7---9---0---2—-be played.---

| / slide up
| \ slide down
| h hammer-on
| p pull-off
| ~ vibrato
| + harmonic
| x Mute note

Almost there ...

Sign in to get your own page with links to favourite songs and more. You are just one click away...

Login with Facebook Login with Google