Log in

One click and you are in

Login with Facebook Login with Google

Why sign up and log in

Guitar Tabs Explorer
Redbone tabs for Come and get your love (Ver. 2)

Guitar tabs

A chord diagramE MajorE |-------|----------------------------|----------------------------|
A chord diagramBB |-------|--3-----0-----3-----0-------|-----3--0-----3--3--0-------|
A chord diagramG+G |-------|-----------2-----------2----|-----------2-----------2----|
A chord diagramD MajorD |-------|----------------------------|----------------------------|
A chord diagramA augmentedA |-------|----------------------------|----------------------------|
A chord diagramE MajorE |-------|----------------------------|----------------------------|
----------------------------|----------------------------|----------------|
--3-----0-----3-----0-------|-----3--0-----3--3--0-------|--3--0--3--0----|
-----------2-----------2----|-----------2-----------2----|----------------|
----------------------------|----------------------------|----------------|
----------------------------|----------------------------|----------------|
----------------------------|----------------------------|----------------|


-----2-----0----------------|----------------------------|
--------------3--3--0-------|--3-----0-----3-----0-------|
-----------------------2----|-----------2-----------2----|
----------------------------|----------------------------|
----------------------------|----------------------------|
----------------------------|----------------------------|


--------2--------0----------------------------------|----------------|
--------------------------3L-3L-3-------------------|--3--0--3--0----|
----------------------------------------------------|----------------|
----------------------------------------------------|----------------|
----------------------------------------------------|----------------|
----------------------------------------------------|----------------|


-----2--2--0----------------|----------------------------|
--------------3--3--0-------|--3-----0-----3-----0L-0----|
-----------------------2----|-----------2----------------|
----------------------------|----------------------------|
----------------------------|----------------------------|
----------------------------|----------------------------|

----------------------------|--2--0----------------------|
-----3--3--0--3L-3--0-------|--------3-------------------|
----------------------------|----------------------------|
----------------------------|----------------------------|
----------------------------|----------------------------|
----------------------------|----------------------------|


-----2-----0----------------|----------------------------|
--------------3--3--0-------|--3-----0-----3-----0-------|
-----------------------2----|-----------2-----------2----|
----------------------------|----------------------------|
----------------------------|----------------------------|
----------------------------|----------------------------|


----------------------------|--------2-----0--0L-0-------|
-----3--0-----3L-3--0-------|-----------3-----------3L---|
-----------2----------------|----------------------------|
----------------------------|----------------------------|
----------------------------|----------------------------|
----------------------------|----------------------------|


----------------------------------------------------|
--3--0----------------------------------------------|
--------2-------------------------------------------|
----------------------------------------------------|
----------------------------------------------------|
----------------------------------------------------|


--------2-----0--0L-0-------|
-----------3-----------3L---|
----------------------------|
----------------------------|
----------------------------|
----------------------------|


-----0--2-------------------------------------------|
--3-------------------------------------------------|
----------------------------------------------------|
----------------------------------------------------|
----------------------------------------------------|
----------------------------------------------------|


--------2-----0--0L-0-------|
-----------3-----------3L---|
----------------------------|
----------------------------|
----------------------------|
----------------------------|


----------------------------------------------------|
--3--0----------------------------------------------|
--------2-------------------------------------------|
----------------------------------------------------|
----------------------------------------------------|
----------------------------------------------------|


--------2-----0--0L-0-------|-------|-------|----------------------------|
-----------3-----------3L---|--3----|-------|--3-----0-----3-----0-------|
----------------------------|-------|-------|-----------2-----------2----|
----------------------------|-------|-------|----------------------------|
----------------------------|-------|-------|----------------------------|
----------------------------|-------|-------|----------------------------|


----------------------------|----------------------------|
-----3--0-----3--3--0-------|--3-----0-----3-----0-------|
-----------2-----------2----|-----------2-----------2----|
----------------------------|----------------------------|
----------------------------|----------------------------|
----------------------------|----------------------------|


----------------------------|----------------|-----2-----0----------------|
-----3--0-----3--3--0-------|--3--0--3--0----|--------------3--3--0-------|
-----------2-----------2----|----------------|-----------------------2----|
----------------------------|----------------|----------------------------|
----------------------------|----------------|----------------------------|
----------------------------|----------------|----------------------------|


----------------------------|
--3-----0-----3-----0-------|
-----------2-----------2----|
----------------------------|
----------------------------|
----------------------------|


--------2--------0----------------------------------|----------------|
--------------------------3L-3L-3-------------------|--3--0--3--0----|
----------------------------------------------------|----------------|
----------------------------------------------------|----------------|
----------------------------------------------------|----------------|
----------------------------------------------------|----------------|


-----2--2--0----------------|----------------------------|
--------------3--3--0-------|--3-----0-----3-----0L-0----|
-----------------------2----|-----------2----------------|
----------------------------|----------------------------|
----------------------------|----------------------------|
----------------------------|----------------------------|


----------------------------|--2--0----------------------|
-----3--3--0--3L-3--0-------|--------3-------------------|
----------------------------|----------------------------|
----------------------------|----------------------------|
----------------------------|----------------------------|
----------------------------|----------------------------|


-----2-----0----------------|----------------------------|
--------------3--3--0-------|--3-----0-----3-----0-------|
-----------------------2----|-----------2-----------2----|
----------------------------|----------------------------|
----------------------------|----------------------------|
----------------------------|----------------------------|


----------------------------|--------2-----0--0L-0-------|
-----3--0-----3L-3--0-------|-----------3-----------3L---|
-----------2----------------|----------------------------|
----------------------------|----------------------------|
----------------------------|----------------------------|
----------------------------|----------------------------|


----------------------------------------------------|
--3--0----------------------------------------------|
--------2-------------------------------------------|
----------------------------------------------------|
----------------------------------------------------|
----------------------------------------------------|


--------2-----0--0L-0-------|
-----------3-----------3L---|
----------------------------|
----------------------------|
----------------------------|
----------------------------|


-----0--2-------------------------------------------|
--3-------------------------------------------------|
----------------------------------------------------|
----------------------------------------------------|
----------------------------------------------------|
----------------------------------------------------|


--------2-----0--0L-0-------|
-----------3-----------3L---|
----------------------------|
----------------------------|
----------------------------|
----------------------------|



----------------------------------------------------|
--3--0----------------------------------------------|
--------2-------------------------------------------|
----------------------------------------------------|
----------------------------------------------------|
----------------------------------------------------|


--------2-----0--0L-0-------|-------||
-----------3-----------3L---|--3----||
----------------------------|-------||
----------------------------|-------||
----------------------------|-------||
----------------------------|-------||


🏷Legend
L - tied note
x - dead note
h - hammer on/pull off
b - bend
s - slide
~ - vibrato
g - ghost note
> - accentuated note
t - trill
M - palm mute
. - staccato
P - popping (bass)
S - slapping (bass)
+ - tapping
W - wide vibrato
< - fade in
w - whammy bar
= - tremolo picking
v - brush up
^ - brush down
V - pick stroke up
n - pick stroke down

Other versions of Come And Get Your Love

Come and get your loveChords
Come and get your loveTabs

Almost there ...

Sign in to get your own page with links to favourite songs and more. You are just one click away...

Login with Facebook Login with Google