Log in

One click and you are in

Login with Facebook Login with Google

Why sign up and log in

Guitar Tabs Explorer
Red Velvet guitar tabs for La rouge special track

Guitar tabs

Tuning: Standard (E A D G B E)


Intro:

e|-----------------------------------------------------5---5---4---5---------------------|
B|-----------------------------------------------------4---4---3---4---------------------|
G|---------------------------------------------------------------------------------------|
D|----------------------1--------1----3----------------------------------3---------------|
A|------------1----3--------3------------------------------------------------------------|
E|--1----4----------------------------------1----1-----------------------------1---------|

                                                       Listen up
e|---------------------------------5---5---4---5---5---5---4---5---------------------|
B|---------------------------------4---4---3---4---4---4---3---4---------------------|
G|-----------------------------------------------------------------------------------|
D|---------------1-------1---3-------------------------------------------------------|
A|-------1---3-------3---------------------------------------------------------------|
E|---4-------------------------------------------------------------------------------|


Verse 1:

   Du nuni majuchimyeon
e|---------------------------------------------------5---5---4---5------------------------|
B|---------------------------------------------------4---4---3---4------------------------|
G|----------------------------------------------------------------------------------------|
D|----------------------1--------1----3-------------------------------3-------------------|
A|------------1----3--------3-------------------------------------------------------------|
E|--1----4----------------------------------1---1--------------------------1--------------|

  Pyojeonge seollemeul sumgiji mothae
e|------------------------------------5---5---4---5---5---5---4---5-------------------|
B|------------------------------------4---4---3---4---4---4---3---4-------------------|
G|------------------------------------------------------------------------------------|
D|-----------------1-------1----3-----------------------------------------------------|
A|--------1----3-------3--------------------------------------------------------------|
E|---4--------------------------------------------------------------------------------|

   Jungnyeoge kkeullideusi
  (naege neon kkeullyeo)             Nungireun See me through
e|------------------------------------------------------------------------------------|
B|------------------------------------------------------------------------------------|
G|-------------1---1-------1---3--------------------1---1-------1----3----------------|
D|-----1---3-----------3--------------------1---3-----------3-------------------------|
A|--1-------------------------------1---1---------------------------------------------|
E|------------------------------------------------------------------------------------|

   Geu aetaneun mam neukkyeojyeo
e|-----------------------------------5--5--4--5--5--5--4--5------------------|
B|-----------------------------------4--4--3--4--4--4--3--4------------------|
G|---------------------------------------------------------------------------|
D|-----------------1------1---3----------------------------------------------|
A|----------1---3-----3------------------------------------------------------|
E|--1---4--------------------------------------------------------------------|

Almost there ...

Sign in to get your own page with links to favourite songs and more. You are just one click away...

Login with Facebook Login with Google