Log in

One click and you are in

Login with Facebook Login with Google

Why sign up and log in

Guitar Tabs Explorer
Red Rider tabs for Lunatic fringe

Guitar tabs with lyrics

Title: "Lunatic Fringe"
Album: "As Far As Siam"

In the verses, there are 2 distinct guitar parts.  For the first part,
let all
of the notes ring as long as possible to get that smooth sound.  The
second
part is just another guitar playing the chords and sustaining them.
Riff (A chord diagramD MajorD) (the rhythm part under the solo) is very similar to riff (A chord diagramA augmentedA) -
the
chord progression is just a bit different.  Note the use of a slide in
the

solo as well.

During the 3rd verse, one guitar is playing a little melody/solo that I
did not
transcribe, but it should be easy to pick out by ear.

At the very end, (A chord diagramC majorC) is played 3 times, with a slight variation the
third time.

- Jambone


Intro:
|-----------------|-----------------|-----------------|-----------------|------
|-----------------|-----------------|-----------------|-----------------|------
|-----------------|-----------------|-----------------|-----------------|------
|9-9------------9-|9-9--------------|9-9------------9-|9-9--------------|------
|9-9------------9-|9-9--------------|9-9------------9-|9-9--------------|------
|7-7------------7-|7-7--------------|7-7------------7-|7-7-\\\\\\\\\\\\\|------
                                                           Pick scrape
 Guitar I
|-----------------|-----------------|-----------------|-----------------|------
|-----------------|-----------------|-----------------|-----------------|------
|2-2-----2-2------|2-2-----2-2------|4-4-----4-4------|4-4-----4-4------|------
|----0h2-----0h2--|----0h2-----0h2--|----2h4-----2h4--|----2h4-----2h4--|------
|-------0-------0-|-------0-------0-|-------2-------2-|-------2-------2-|------
|-----------------|-----------------|-----------------|-----------------|------
|
|Guitar II
|-----------------|-----------------|-----------------|-----------------|------
|-----------------|-----------------|-----------------|-----------------|------
|2----------------|---------------2-|4----------------|------------4----|------
|2----------------|---------------2-|4----------------|------------4----|------
|0----------------|---------------0-|2----------------|------------2----|------
|-----------------|-----------------|-----------------|-----------------|------

Verse 1:

 Riff (A chord diagramA augmentedA)
 Guitar I
|-----------------|-----------------|-----------------|-----------------|------
|-----------------|-----------------|-----------------|-----------------|------
|7-7-----7-7------|7-7-----7-7------|4-4-----4-4------|4-4-----4-4------|------
|----5h7-----5h7--|----5h7-----5h7--|----2h4-----2h4--|----2h4-----2h4--|------
|-------5-------5-|-------5-------5-|-------2-------2-|-------2-------2-|------
|-----------------|-----------------|-----------------|-----------------|------
|
|Guitar II
|-----------------|-----------------|-----------------|-----------------|------
|-----------------|-----------------|-----------------|-----------------|------
|7----------------|-----------------|-----------------|-----------------|------
|7----------------|-----------------|-----------------|-----------------|------
|5----------------|-----------------|-----------------|-----------------|------
|-----------------|-----------------|-----------------|-----------------|------

 Guitar I
|-----------------|-----------------|-----------------|-----------------|------
|-----------------|-----------------|-----------------|-----------------|------
|7-7-----7-7------|7-7-----7-7------|4-4-----4-4------|4-4-----4-4------|------
|----5h7-----5h7--|----5h7-----5h7--|----2h4-----2h4--|----2h4-----2h4--|------
|-------5-------5-|-------5-------5-|-------2-------2-|-------2-------2-|------
|-----------------|-----------------|-----------------|-----------------|------
|
|Guitar II
|-----------------|-----------------|-----------------|-----------------|------
|-----------------|-----------------|-----------------|-----------------|------
|-----------------|-----------------|-----------------|-----------------|------
|-----------------|-----------------|-----------------|-----------------|------
|-----------------|-----------------|-----------------|-----------------|------
|-----------------|-----------------|-----------------|-----------------|------

 Guitar I
|-----------------|-----------------|-----------------|-----------------|------
|-----------------|-----------------|-----------------|-----------------|------
|2-2-----2-2------|2-2-----2-2------|4-4-----4-4------|4-4-----4-4------|------
|----0h2-----0h2--|----0h2-----0h2--|----2h4-----2h4--|----2h4-----2h4--|------
|-------0-------0-|-------0-------0-|-------2-------2-|-------2-------2-|------
|-----------------|-----------------|-----------------|-----------------|------
|
|Guitar II
|-----------------|-----------------|-----------------|-----------------|------
|-----------------|-----------------|-----------------|-----------------|------
|2----------------|-----------------|4----------------|--------4--------|------
|2----------------|-----------------|4----------------|--------4--------|------
|0----------------|-----------------|2----------------|--------2--------|------
|-----------------|-----------------|-----------------|-----------------|------

 Guitar I
|-----------------|-----------------|-----------------|-----------------|------
|-----------------|-----------------|-----------------|-----------------|------
|2-2-----2-2------|2-2-----2-2------|----9b10b9-7-----|----9b10b9-7-----|------
|----0h2-----0h2--|----0h2-----0h2--|9-9-9b10b9-7-9-9-|9-9-9b10b9-7-9-9-|------
|-------0-------0-|-------0-------0-|9-9----------9-9-|9-9----------9-9-|------
|-----------------|-----------------|7-7--------------|7-7--------------|------
|
|Guitar II
|-----------------|-----------------|-----------------|-----------------|------
|-----------------|-----------------|-----------------|-----------------|------
|2----------------|-----------------|----9b10b9-7-----|----9b10b9-7-----|------
|2----------------|-----------------|9-9-9b10b9-7-9-9-|9-9-9b10b9-7-9-9-|------
|0----------------|-----------------|9-9----------9-9-|9-9----------9-9-|------
|-----------------|-----------------|7-7--------------|7-7--------------|------


 Riff (A chord diagramBB)
 Both Guitars
|-----------------|------
|-----------------|------
|----9b10b9-7-----|------
|9-9-9b10b9-7-9-9-|------
|9-9----------9-9-|------
|7-7--------------|------

Play (A chord diagramBB) 3 times, followed by 1 measure of rest.


Verse 2:
 Play (A chord diagramA augmentedA), then replace (A chord diagramBB) with (A chord diagramC majorC).

 Riff (A chord diagramC majorC) (note the extra measure)
 Both Guitars
|-----------------|-----------------|-----------------|-----------------|------
|-----------------|-----------------|-----------------|------------17~--|------
|-----------------|-----------------|-----------------|-----------------|------
|9-9--------------|9-9--------------|9-9--------------|9-9--------------|------
|9-9--------------|9-9--------------|9-9--------------|9-9--------------|------
|7-7--------------|7-7--------------|7-7--------------|7-7--------------|------

|-----------------|------
|-----------------|------
|-----------------|------
|-----------------|------
|-----------------|------
|-----------------|------


Solo:

 Guitar I
|-----------------|-----------------|-----------7---7~|-----------------|------
|-------15b17-15--|14~--------------|--------5/7-5/7--|-----------------|------
|-----------------|---------------x-|4~---------------|-----------------|------
|-----------------|---------------x-|4~---------------|-----------------|------
|-----------------|-----------------|-----------------|-----------------|------
|-----------------|-----------------|-----------------|-----------------|------
|
|Guitar II - Riff (A chord diagramD MajorD)
|-----------------|-----------------|-----------------|-----------------|------
|-----------------|-----------------|-----------------|-----------------|------
|2-2-----2-2------|2-2-----2-2------|4-4-----4-4------|4-4-----4-4------|------
|----0h2-----0h2--|----0h2-----0h2--|----2h4-----2h4--|----2h4-----2h4--|------
|-------0-------0-|-------0-------0-|-------2-------2-|-------2-------2-|------
|-----------------|-----------------|-----------------|-----------------|------


 Guitar I
|-----------------|-----------------|-----------------|-----------------|------
|-----------------|-----------------|-----------------|/15141212~--12/15|------
|2~------6/7~-----|6~--------7----9-|6/7~-------------|-----------------|------
|2~---------------|-----------------|-----------------|-----------------|------
|-----------------|-----------------|-----------------|-----------------|------
|-----------------|-----------------|-----------------|-----------------|------
|
|Guitar II
|-----------------|-----------------|-----------------|-----------------|------
|-----------------|-----------------|-----------------|-----------------|------
|2-2-----2-2------|2-2-----2-2------|4-4-----4-4------|4-4-----4-4------|------
|----0h2-----0h2--|----0h2-----0h2--|----2h4-----2h4--|----2h4-----2h4--|------
|-------0-------0-|-------0-------0-|-------2-------2-|-------2-------2-|------
|-----------------|-----------------|-----------------|-----------------|------


 Guitar I
|-----------------|-----------------|-----------------|-----------------|------
|15~-17/19~--19/21|~---21~----------|-----------------|-----------------|------
|-----------------|-----------------|4-------4-----4--|----4/7-\6--\4---|------
|-----------------|-----------------|----2/4---2/4----|2/4--------------|------
|-----------------|-----------------|-----------------|-----------------|------
|-----------------|-----------------|-----------------|-----------------|------
|
|Guitar II
|-----------------|-----------------|-----------------|-----------------|------
|-----------------|-----------------|-----------------|-----------------|------
|7-7-----7-7------|7-7-----7-7------|4-4-----4-4------|4-4-----4-4------|------
|----5h7-----5h7--|----5h7-----5h7--|----2h4-----2h4--|----2h4-----2h4--|------
|-------5-------5-|-------5-------5-|-------2-------2-|-------2-------2-|------
|-----------------|-----------------|-----------------|-----------------|------


 Guitar I
|-----------------|-----------------|------
|--------/15\14---|-----------------|------
|\2~--------------|/11\9~-----------|------
|-----------------|-----------------|------
|-----------------|-----------------|------
|-----------------|-----------------|------
|
|Guitar II
|-----------------|-----------------|------
|-----------------|-----------------|------
|2-2-----2-2------|2-2-----2-2------|------
|----0h2-----0h2--|----0h2-----0h2--|------
|-------0-------0-|-------0-------0-|------
|-----------------|-----------------|------


 Play (A chord diagramBB) 4 times on exit from solo.


Verse 3:
 Play (A chord diagramD MajorD) (rhythm part under solo).
 Play (A chord diagramC majorC) 2 times.

 Play (C2) below:

 Riff (C2)
 Both Guitars
|-----------------|-----------------|-----------------|-----------------|------
|-----------------|-----------------|-----------------|-----------------|------
|-----------------|-----------------|-----------------|-----------------|------
|9-9--------------|9-9-9-9----------|9-9--------------|9-9--------------|------
|9-9--------------|9-9-9-9----------|9-9--------------|9-9--------------|------
|7-7--------------|7-7-7-7----------|7-7--------------|7-7--------------|------

|-----------------||
|-----------------||
|-----------------||
|9-9--------------||
|9-9--------------||
|7-7--------------||

Almost there ...

Sign in to get your own page with links to favourite songs and more. You are just one click away...

Login with Facebook Login with Google