GuitarTabsExplorer icon
GuitarTabsExplorer icon

Log in

Songbook

  • Log in to add and see bookmarks

Last visited songs

  • No songs visited yet...
You Better Pray by The Red Jumpsuit Apparatus

You Better Pray tab by The Red Jumpsuit Apparatus

Tabs

Note-
for right handers

+ - natural harmonics
^*-bend with right thumb harmonics
~-letring
p-pull off
h-hammer on
/-slide
^(#)-# note that reached when a string is bended


Intro-
Gtrs

|-------------------------------------------------------------|
|-------------------------------------------------------------|
|-------------------------------------------------------------|
|-5+~---------------------------------------------------------|
|-------------------------------------------------------------|
|-------------------------------------------------------------|
GtrI
|-------------------------------------------------------|
|-------------------------------------------------------|
|-------------------------------------------------------|
|-5-5-5-5-5-5-5-5-5-5-5-5-5-5-5-5-5-5-5-5-5-5-5-5-5-5-5-|
|-5-5-5-5-5-5-5-5-5-5-5-5-5-5-5-5-5-5-5-5-5-5-5-5-5-5-5-|
|-5-5-5-5-5-5-5-5-5-5-5-5-5-5-5-5-5-5-5-5-5-5-5-5-5-5-5-|
GtrII
|-------------------------------------------------------------|
|-6p3--3-6p3--3-6p3--3-6p3--3-6p3--3-6p3--3-6p3--3-6-/8~------|
|-----5-----5------5------5------5------5------5---5-/7~------|
|-------------------------------------------------------------|
|-------------------------------------------------------------|
|-------------------------------------------------------------|


|-13p10--10-13p10--10-13p10--10-13p10------15-13-15-15/17-15-13---|
|------13--------13--------13--------13------------------------15-|
|-----------------------------------------------------------------|
|-----------------------------------------------------------------|
|-----------------------------------------------------------------|
|-----------------------------------------------------------------|

Both
GtrI
|-------------------------------------------------------------------------|
|-------------------------------------------------------------------------|
|-------------------------------------------------------------------------|
|-555555555555-0-2-3-4-555555555555---------------00-0--5-5-7-77--0-2-3-4-|
|-555555555555-0-2-3-4-555555555555---------------00-0--3-3-5-55--0-2-3-4-|
|-555555555555-0-2-3-4-555555555555---------------00-0------0-00--0-2-3-4-|

GtrII
|-------------------------------------------------------------------------|
|-------------------------------------------------------------------------|
|-------------------------------------------------------------------------|
|-555555555555-0-2-3-4-555555555555--5^*5---3-----00-0--5-5-7-77--0-2-3-4-|
|-555555555555-0-2-3-4-555555555555-----------3---00-0--3-3-5-55--0-2-3-4-|
|-555555555555-0-2-3-4-555555555555---------------00-0------0-00--0-2-3-4-|
Verse-Figure out Palm muting...
GtrI


|--------------------------------------------------------------|
|--------------------------------------------------------------|
|--------------------------------------------------------------|
|-5-5-5-5-5-5-5-5-5-5-5-5-5-5-5-5-5-5-0000-555-0000-7-6-5------|
|-5-5-5-5-5-5-5-5-5-5-5-5-5-5-5-5-5-5-0000-333-0000-7-6-5------|
|-5-5-5-5-5-5-5-5-5-5-5-5-5-5-5-5-5-5-0000-----0000-7-6-5------|

|------------------------------------------------------------|
|------------------------------------------------------------|
|------------------------------------------------------------|
|-5-5-5-5-3-3-3-5-5-5-5-5-5-5-5-5-5-5-0000-555-0000-0-2-3-4--|
|-5-5-5-5-3-3-3-5-5-5-5-5-5-5-5-5-5-5-0000-333-0000-0-2-3-4--|
|-5-5-5-5-3-3-3-5-5-5-5-5-5-5-5-5-5-5-0000-----0000-0-2-3-4--|

|---------------------------------------------------------------|
|---------------------------------------------------------------|
|---------------------------------------------------------------|
|-5-5-5-5-5-5-5-5-5-5-5-5-5-5-5-5-5-5-0000-555-0000-7-6-5-------|
|-5-5-5-5-5-5-5-5-5-5-5-5-5-5-5-5-5-5-0000-333-0000-7-6-5-------|
|-5-5-5-5-5-5-5-5-5-5-5-5-5-5-5-5-5-5-0000-----0000-7-6-5-------|

GtrII

|---------------------------------------------------------------|
|---------------------------------------------------------------|
|---------------------------------------------------------------|
|-5-5-5-5-5-5-5-5-5-5-5-5-5^*5--3-----7777-555-77777-7-6-5------|
|-5-5-5-5-5-5-5-5-5-5-5-5----------3--5555-333-55555-7-6-5------|
|-5-5-5-5-5-5-5-5-5-5-5-5----------------------------7-6-5------|

|-------------------------------------------------------------|
|-------------------------------------------------------------|
|-------------------------------------------------------------|
|-5-5-5-5-3-3-3-5-5-5-5-5-5^*p3-5-3^*-7777-555-77777-0-2-3-4--|
|-5-5-5-5-3-3-3-5-5-5-5-5-------------5555-333-55555-0-2-3-4--|
|-5-5-5-5-3-3-3-5-5-5-5-5----------------------------0-2-3-4--|

|---------------------------------------------------------------|
|---------------------------------------------------------------|
|---------------------------------------------------------------|
|-5-5-5-5-5-5-5-5-5-5-5-5-5^*5-3------7777-555-77777-7-6-5------|
|-5-5-5-5-5-5-5-5-5-5-5-5---------3---5555-333-55555-7-6-5------|
|-5-5-5-5-5-5-5-5-5-5-5-5----------------------------7-6-5------|

pre-chorus
GtrI
|-------------------------------------------------------|-----------------|
|-------------------------------------------------------|-----------------|
|-------------------------------------------------------|-----------------|
|-5-5-5-5-3-3-3-5-5-5-5-5-5-5-5-5-5------0000-555-0000--|-0000-555-0000---|
|-5-5-5-5-3-3-3-5-5-5-5-5-5-5-5-5-5------0000-333-0000--|-0000-333-0000---|
|-5-5-5-5-3-3-3-5-5-5-5-5-5-5-5-5-5------0000-----0000--|-0000-----0000---|

GtrII
|----------------------------------------|
|----------------------------------------|
|----------------------------------------|
|-5-5-5-5-3-3-3-5-5-5-5-5-5^*5p3-5-3^*---|
|-5-5-5-5-3-3-3-5-5-5-5-5----------------|
|-5-5-5-5-3-3-3-5-5-5-5-5----------------|


|----------------------------|--------------------------|
|-3------3-------------------|-10----10---13-------10^~-|
|-5^(7)r-5^r~-------------5~-|-12^r--12^r---12r-10-12^~-|
|-------------s-7-6-5-5h7----|--------------------------|
|----------------------------|--------------------------|
|----------------------------|--------------------------|


Chorus

|----------------------------------------------------------------|
|----------------------------------------------------------------|
|----------------------------------------------------------------|
|-0-0-0-0/7-7-7-6-5-5-5-5-5-5/3-0--0-0-0-0/7-7-7-5-5-5-5-5-5-5---|
|-0-0-0-0/7-7-7-6-5-5-5-5-5-5/3-0--0-0-0-0/7-7-7-3-5-5-5-5-5-5---|
|-0-0-0-0/7-7-7-6-5-5-5-5-5-5/3-0--0-0-0-0/7-7-7---5-5-5-5-5-5---|


Do Verse-
pre cho-

Chorus2-

|----------------------------------------------------------------|
|----------------------------------------------------------------|
|----------------------------------------------------------------|
|-0-0-0-0/7-7-7-6-5-5-5-5-5-5/3-0--0-0-0-0/7-7-7-5-5-5-5-5-5-5-3-|
|-0-0-0-0/7-7-7-6-5-5-5-5-5-5/3-0--0-0-0-0/7-7-7-3-5-5-5-5-5-5-3-|
|-0-0-0-0/7-7-7-6-5-5-5-5-5-5/3-0--0-0-0-0/7-7-7---5-5-5-5-5-5-3-|


|----------------------------------------------------------------|
|----------------------------------------------------------------|
|----------------------------------------------------------------|
|-0-0-0-0/7-7-7-6-5-5-5-5-5-5/3-0--0-0-0-0/7-7-7-5-5-5-5-5-5-5---|
|-0-0-0-0/7-7-7-6-5-5-5-5-5-5/3-0--0-0-0-0/7-7-7-3-5-5-5-5-5-5---|
|-0-0-0-0/7-7-7-6-5-5-5-5-5-5/3-0--0-0-0-0/7-7-7---5-5-5-5-5-5---|


then

Presolo-
GtrI
|------------------------------------------------------------|
|------------------------------------------------------------|
|------------------------------------------------------------|
|-0~---------------------------------------------------------|
|-0~---------------------------------------------------------|
|-0~---------------------------------------------------------|
GtrII
|--20^(22)--20^(22)-20^(22)-20^(22)-20^(21)-20~-|--------------10-s14-------|
|-----------------------------------------------|---------------------15~---|
|-----------------------------------------------|--12/14p12p10--------------|
|-----------------------------------------------|---------------------------|
|-----------------------------------------------|---------------------------|
|-----------------------------------------------|---------------------------|

|-------13------------------------------------------------|
|-13/15----15-13-15-13------------------10----------------|
|----------------------14-13-12-10-7-10-12^(14)p-10-7-----|
|---------------------------------------------------------|
|---------------------------------------------------------|
|---------------------------------------------------------|

solo-
GtrI

|------------------------------------------------------------|
|------------------------------------------------------------|
|------------------------------------------------------------|
|-0~--0----/-7-6-5-3-------0~--0----/-7-6-5-3----------------|
|-0~--0----/-7-6-5-3-------0~--0----/-7-6-5-3----------------|
|-0~--0----/-7-6-5-3-------0~--0----/-7-6-5-3----------------|

GtrII
|---------------------------------------------------|
|-----6-------------6-------------------------------|
|-5/7---7-5-7^*--5/7---7-5-7--5-7-------------------|
|---------------------------------7-6-5-------------|
|---------------------------------------8-7---------|
|---------------------------------------------------|


|-------13------------------------------13----------------|
|-13/15----15-13-15-13---------------13----15-13-15-------|
|----------------------14-13-12h13h14---------------------|
|---------------------------------------------------------|
|---------------------------------------------------------|
|---------------------------------------------------------|

|----------------------------------|
|-10--------------10---------------|
|-12^(10)p10------12^(10)p10-------|
|------------12--------------12----|2x
|----------------------------------|
|----------------------------------|

|-------------------------------------------|
|-----10----10---13-------------------------|
|-----12^r--12^r-----12r--10~---------------|
|-------------------------------------------|
|-------------------------------------------|
|-------------------------------------------|


Do Chorus--


GtrII @ 3:14


|--13131010-13131010-13131010-13131010-13131010-13131010------|
|--13131313-13131313-13131313-13131313-13131313-13131313------|
|-------------------------------------------------------------|2x
|-------------------------------------------------------------|
|-------------------------------------------------------------|
|-------------------------------------------------------------|

|--------15-13-15-15/17---15-13---|
|------------------------------15-|
|---------------------------------|
|---------------------------------|
|---------------------------------|
|---------------------------------|



|--13131010-13131010-13131010-13131010-13131010-13131010------|
|--10101010-10101010-10101010-10101010-10101010-10101010------|
|-------------------------------------------------------------|2x
|-------------------------------------------------------------|
|-------------------------------------------------------------|
|-------------------------------------------------------------|

|--------15-13-15-15^(17)-----|
|-----------------------------|
|-----------------------------|
|-----------------------------|
|-----------------------------|
|-----------------------------|
end
GtrI
|-------------------------------------------------------|
|-------------------------------------------------------|
|-------------------------------------------------------|
|-5-5-5-5-5-5-5-5-5-5-5-5-5-5-5-5-5-5-5-5-5-5-5-5-5-5-5-|
|-5-5-5-5-5-5-5-5-5-5-5-5-5-5-5-5-5-5-5-5-5-5-5-5-5-5-5-|
|-5-5-5-5-5-5-5-5-5-5-5-5-5-5-5-5-5-5-5-5-5-5-5-5-5-5-5-|
GtrII
|-------------------------------------------------------------|
|-6p3--3-6p3--3-6p3--3-6p3--3-6p3--3-6p3--3-6p3--3-6-/8~------|
|-----5-----5------5------5------5------5------5---5-/7~------|
|-------------------------------------------------------------|
|-------------------------------------------------------------|
|-------------------------------------------------------------|


|-13p10--10-13p10--10-13p10--10-13p10----15-13-15-15/17--15-13----|
|------13--------13--------13--------13------------------------15-|
|-----------------------------------------------------------------|
|-----------------------------------------------------------------|
|-----------------------------------------------------------------|
|-----------------------------------------------------------------|

end with
|-----------------------|
|-----------------------|
|-----------------------|
|-00-0--5-5-7-77--7-6-5-|
|-00-0--3-3-5-55--7-6-5-|
|-00-0------0-00--7-6-5-|
         * *

[ Privacy | About us ]

Welcome to the guitar community

Why join and log in?
- Get songbook with favourite songs
- Get custom made front page
- Submit chords and tabs
- Submit guitar-cover videos
- Get a lot of thumbs up for your work

Songbook

Last visited songs

Site
Home
Search
Community
Submit chords

Video

No video for this page. Check out how you can submit guitar-cover videos here

Search tabs and chords

Browse by artist

A B C D E F G H I J K L M N O P Q R S T U V W X Y Z #


Menu

Search

Video

Bookmark

Login