GuitarTabsExplorer icon
GuitarTabsExplorer icon

Log in

Songbook

  • Log in to add and see bookmarks

Last visited songs

  • No songs visited yet...
Face Down  by The Red Jumpsuit Apparatus

Face Down tab by The Red Jumpsuit Apparatus

Tabs (Ver. 2)

FACE DOWN
          As recorded by The Red Jumpsuit Apparatus


Gtr I (Chord diagramD MajorD Lead'
Gtr II (Chord diagramD MajorD Rythym'
Gtr III (D'

 Q=190
 4/4
 Gtr I
 Wx4              W     +W     W     +W
|---------------------------||---------------------------------------------|
|---------------------------||---------------------------------------------|
|---------------------------||---------------------------------------------|
|---------------------------||--5---------(5)---------1---------(1)--------|
|---------------------------||--5---------(5)---------1---------(1)--------|
|---------------------------||--5---------(5)---------1---------(1)--------|
|
| Gtr II
| Wx4              W     +W     W     +W
|---------------------------||---------------------------------------------|
|---------------------------||---------------------------------------------|
|---------------------------||-10--------(10)--------10--------(10)--------|
|---------------------------||-10--------(10)--------10--------(10)--------|
|---------------------------||--8---------(8)---------8---------(8)--------|
|---------------------------||---------------------------------------------|
  W     +W     W     +W
|-----------------------------------------|
|-----------------------------------------|
|--3---------(3)--------------------------|
|--3---------(3)---------3---------(3)----|
|--1---------(1)---------3---------(3)----|
|------------------------3---------(3)----|
|
| W     +W     W     +W
|-----------------------------------------|
|-----------------------------------------|
|-10--------(10)--------10--------(10)----|
|-10--------(10)--------10--------(10)----|
|--8---------(8)---------8---------(8)----|
|-----------------------------------------|


   PM--------------------------|   PM--------------------------|
 Q Chord diagramE MajorE
|----------------|-----------------|----------------|-----------------|
|----------------|-----------------|----------------|-----------------|
|----------------|-----------------|----------------|-----------------|
|-5--------------|-----------------|-1--------------|-----------------|
|-5--5-5-5-5-5-5-|-5-5-5-5-5-5-5-5-|-1--1-1-1-1-1-1-|-1-1-1-1-1-1-1-1-|
|-5--5-5-5-5-5-5-|-5-5-5-5-5-5-5-5-|-1--1-1-1-1-1-1-|-1-1-1-1-1-1-1-1-|
|
|  PM--------------------------|   PM--------------------------|
| Q Chord diagramE MajorE
|----------------|-----------------|----------------|-----------------|
|----------------|-----------------|----------------|-----------------|
|----------------|-----------------|----------------|-----------------|
|-5--------------|-----------------|-1--------------|-----------------|
|-5--5-5-5-5-5-5-|-5-5-5-5-5-5-5-5-|-1--1-1-1-1-1-1-|-1-x-x-1-1-x-1-1-|
|-5--5-5-5-5-5-5-|-5-5-5-5-5-5-5-5-|-1--1-1-1-1-1-1-|-1-x-x-1-1-x-1-1-|
   PM--------------------------|   PM------------------|
 Q H
|----------------|-----------------|----------------|----------------|
|----------------|-----------------|----------------|----------------|
|-3--------------|-----------------|----------------|-------------|
|-3--3-3-3-3-3-3-|-3-3-3-3-3-3-3-3-|-3--------------|-------------|
|-1--1-1-1-1-1-1-|-1-1-1-1-1-1-1-1-|-3--3-3-3-3-3-3-|-3-3-3-3--------|
|----------------|-----------------|-3--3-3-3-3-3-3-|-3-3-3-3--------|
|
|  PM--------|    PM|   PM|   PM------------------|
| Q H
|----------------|-----------------|----------------|----------------|
|----------------|-----------------|----------------|----------------|
|-3--------------|-5-------3-------|----------------|-------------|
|-3--3-3-3-3-3-3-|-x---5-5-x---1-1-|-3--------------|-------------|
|-1--1-1-1-1-1-1-|-3---3-3-1---1-1-|-3--3-3-3-3-3-3-|-3-3-3-3--------|
|----------------|-----------------|-3--3-3-3-3-3-3-|-3-3-3-3--------|


   PM--------------------------|   PM--------------------------|
 Q Chord diagramE MajorE
|----------------|-----------------|----------------|-----------------|
|----------------|-----------------|----------------|-----------------|
|----------------|-----------------|----------------|-----------------|
|-5--------------|-----------------|-1--------------|-----------------|
|-5--5-5-5-5-5-5-|-5-5-5-5-5-5-5-5-|-1--1-1-1-1-1-1-|-1-1-1-1-1-1-1-1-|
|-5--5-5-5-5-5-5-|-5-5-5-5-5-5-5-5-|-1--1-1-1-1-1-1-|-1-1-1-1-1-1-1-1-|
|
|  PM--------------------------|   PM--------------------------|
| Q Chord diagramE MajorE
|----------------|-----------------|----------------|-----------------|
|----------------|-----------------|----------------|-----------------|
|----------------|-----------------|----------------|-----------------|
|-5--------------|-----------------|-1--------------|-----------------|
|-5--5-5-5-5-5-5-|-5-5-5-5-5-5-5-5-|-1--1-1-1-1-1-1-|-1-x-1-x-x-1-1-1-|
|-5--5-5-5-5-5-5-|-5-5-5-5-5-5-5-5-|-1--1-1-1-1-1-1-|-1-x-1-x-x-1-1-1-|


 Q Chord diagramE MajorE
|----------------|-----------------|
|----------------|-----------------|
|-3--x-x-5---x-x-|-7---x-x-8---x-x-|
|-x--x-x-x---x-x-|-x---x-x-x---x-x-|
|-1--x-x-3---x-x-|-5---x-x-6---x-x-|
|----------------|-----------------|
|
|  PM--------------------------|
| Q Chord diagramE MajorE
|----------------|-----------------|
|----------------|-----------------|
|-3--------------|-----------------|
|-3--3-3-3-3-3-3-|-3-3-3-3-3-3-3-3-|
|-1--1-1-1-1-1-1-|-1-1-1-1-1-1-1-1-|
|----------------|-----------------|


   PM---------|
  Chord diagramE MajorE
|-------------------------|-------------------------|
|-------------------------|-------------------------|
|-10-10-10-10-10-10-10-10-|-10-10-10-10-10-10-10-10-|
|--x--x--x--x--x--x--x--x-|--x--x-10-10-10-10-10-10-|
|--8--8--8--8--8--8--8--8-|--8--8--8--8--8--8--8--8-|
|-------------------------|-------------------------|
|
|    PM--------------------------------------|
| Q   Chord diagramE MajorE
|-------------------------|-------------------------|
|-------------------------|-------------------------|
|-------------------------|-------------------------|
|--3----------------------|-------------------------|
|--3-----3--3--3--3--3--3-|--3--3--3--3--3--3--3--3-|
|--3-----3--3--3--3--3--3-|--3--3--3--3--3--3--3--3-|


     PM--------------------------------|
   Q  Chord diagramE MajorE
||---------------------|---------------------|
||o--------------------|---------------------|
||---------------------|---------------------|
||---5-----------------|---------------------|
||o--5---5-5--5-5--5-5-|--5-5--5-5--5-5--5-5-|
||---5---5-5--5-5--5-5-|--5-5--5-5--5-5--5-5-|
|
|  ~~~~~~~~~~~~~~~~~~~~~~~~~~~~~~~~~~~~~~~~~
|  Q  Q  Q  Q   Q  Q  Q  Q
||----------------13---|-----------15---13---|
||o-11-------11--------|-11------------------|
||------10-------------|------10-------------|
||---------------------|---------------------|
||o--------------------|---------------------|
||---------------------|---------------------|


    PM--------------------------------|
  Q  Chord diagramE MajorE
|--------------------|--------------------|
|--------------------|--------------------|
|--------------------|--------------------|
|--1-----------------|--------------------|
|--1---1-1--1-1--1-1-|--1-1--1-1--1-1--1-1|
|--1---1-1--1-1--1-1-|--1-1--1-1--1-1--1-1|
|
|~~~~~~~~~~~~~~~~~~~~~~~~~~~~~~~~~~~~~~~~
| Q  Q  Q  Q   Q  Q  Q  Q
|---------------13---|-----------15---13--|
|-11-------11--------|-11-----------------|
|-----10-------------|------10------------|
|--------------------|--------------------|
|--------------------|--------------------|
|--------------------|--------------------|


    PM--------------------------------|
  Q  Chord diagramE MajorE
|--------------------|---------------------|
|--------------------|---------------------|
|--3-----------------|---------------------|
|--3---3-3--3-3--3-3-|--3-3--3-3--3-3--3-3-|
|--1---1-1--1-1--1-1-|--1-1--1-1--1-1--1-1-|
|--------------------|---------------------|
|
| ~~~~~~~~~~~~~~~~~~~~~~~~~~~~~~~~~~~~~~
| Q  Q  Q  Q   Q  Q  Q  Q
|---------------13---|----------------13---|
|-11-------11--------|-11--------11--------|
|-----10-------------|------10-------------|
|--------------------|---------------------|
|--------------------|---------------------|
|--------------------|---------------------|


 Chord diagramE MajorE
|-----------------|------------------||
|-----------------|-----------------o||
|-----------------|------------------||
|-3---------------|------------------||
|-3-3---3-3---3-3-|---3-3---3---3---o||
|-3-3---3-3---3-3-|---3-3---3---3----||
|
| Chord diagramE MajorE
|-----------------|------------------||
|-----------------|-----------------o||
|-----------------|------------------||
|-3---------------|------------------||
|-3-3---3-3---3-3-|---3-3---3---3---o||
|-3-3-x-3-3---3-3-|-x-3-3---3---3----||


 Chord diagramE MajorE Q.
|-------------------------------|
|-------------------------------|
|-------------------------------|
|-5-5---5-5-5---5-5-5---5-5-----|
|-5-5-x-5-5-5-x-5-5-5-x-5-5-----|
|-5-5-x-5-5-5-x-5-5-5-x-5-5-----|
|
| Chord diagramE MajorE Q.
|-------------------------------|
|-------------------------------|
|-------------------------------|
|-5-5---5-5-5---5-5-5---5-5-----|
|-5-5---5-5-5---5-5-5---5-5-----|
|-5-5---5-5-5---5-5-5---5-5-----|


   PM--------------------------|   PM--------------------------|
 Q Chord diagramE MajorE
|----------------|-----------------|----------------|-----------------|
|----------------|-----------------|----------------|-----------------|
|----------------|-----------------|----------------|-----------------|
|-5--------------|-----------------|-1--------------|-----------------|
|-5--5-5-5-5-5-5-|-5-5-5-5-5-5-5-5-|-1--1-1-1-1-1-1-|-1-1-1-1-1-1-1-1-|
|-5--5-5-5-5-5-5-|-5-5-5-5-5-5-5-5-|-1--1-1-1-1-1-1-|-1-1-1-1-1-1-1-1-|
|
|  PM--------------------------|   PM--------------------------|
| Q Chord diagramE MajorE
|----------------|-----------------|----------------|-----------------|
|----------------|-----------------|----------------|-----------------|
|----------------|-----------------|----------------|-----------------|
|-5--------------|-----------------|-1--------------|-----------------|
|-5--5-5-5-5-5-5-|-5-5-5-5-5-5-5-5-|-1--1-1-1-1-1-1-|-1-1-x-1-x-1-1-1-|
|-5--5-5-5-5-5-5-|-5-5-5-5-5-5-5-5-|-1--1-1-1-1-1-1-|-1-1-x-1-x-1-1-1-|


   PM--------------------------|   PM------------------|
 Q Chord diagramE MajorE Q  Q
|----------------|-----------------|----------------|-------------------|
|----------------|-----------------|----------------|-------------------|
|-3--------------|-----------------|----------------|----------------|
|-3--3-3-3-3-3-3-|-3-3-3-3-3-3-3-3-|-3--------------|----------------|
|-1--1-1-1-1-1-1-|-1-1-1-1-1-1-1-1-|-3--3-3-3-3-3-3-|-3-3-3-3-----------|
|----------------|-----------------|-3--3-3-3-3-3-3-|-3-3-3-3-----------|
|
|  PM--------|    PM|   PM|   PM------------------|
| Q Chord diagramE MajorE Q  Q
|----------------|-----------------|----------------|---------13--------|
|----------------|-----------------|----------------|--------------13---|
|-3--------------|-5-------3-------|----------------|-------------------|
|-3--3-3-3-3-3-3-|-x---5-5-x---1-1-|-3--------------|-------------------|
|-1--1-1-1-1-1-1-|-3---3-3-1---1-1-|-3--3-3-3-3-3-3-|-3-3-3-3-----------|
|----------------|-----------------|-3--3-3-3-3-3-3-|-3-3-3-3-----------|


   PM----|   PM----|   PM|  PM----|   PM----|   PM|
 Q Chord diagramE MajorE
|---------------------------------------------------------------|
|---------------------------------------------------------------|
|---------------------------------------------------------------|
|-5----------5-----------5-------1----------1-----------1-------|
|-5--x-x-x-x-5---x-x-x-x-5---x-x-1--x-x-x-x-1---x-x-x-x-1---x-x-|
|-5--x-x-x-x-5---x-x-x-x-5---x-x-1--x-x-x-x-1---x-x-x-x-1---x-x-|
|
| Q Chord diagramE MajorE
|---------------------------------------------------------------|
|---------------------------------------------------------------|
|-2----------3-----------2-------3--2-------3-----------2-2S3S2-|
|-x----------x-----------x-------x--x-------x-----------x-------|
|-0----------1-----------0-------1--0-------1-----------0-------|
|---------------------------------------------------------------|


   PM----|   PM----|   PM|
 Q  Chord diagramE MajorE
|----------------|-----------------|
|----------------|-----------------|
|-3---x-x-x-x-3--|-x-x-x-x-3---x-x-|
|-3---x-x-x-x-3--|-x-x-x-x-3---x-x-|
|-1---x-x-x-x-1--|-x-x-x-x-1---x-x-|
|----------------|-----------------|
|
| Chord diagramE MajorE
|----------------|-----------------|
|----------------|-----------------|
|-2-----------3--|---------2-2S3S2-|
|-x-----------x--|---------x-------|
|-0-----------1--|---------0-------|
|----------------|-----------------|


     PM------|      PM------|   PM|
  Q   Chord diagramE MajorE
|-------------------------|--------------------|
|-------------------------|--------------------|
|-------------------------|--------------------|
|--3-----x--x--x--x--3----|--x--x--x--x-3--x-x-|
|--3-----x--x--x--x--3----|--x--x--x--x-3--x-x-|
|--3-----x--x--x--x--3----|--x--x--x--x-3--x-x-|
|
| PM------------------|
| Chord diagramE MajorE
|-------------------------|--------------------|
|-------------------------|--------------------|
|-10-10-10-10-10-10-10-10-|-10-10-10-10--------|
|--x--x--x--x--x--x--x--x-|--x--x-10-10--------|
|--8--8--8--8--8--8--8--8-|--8--8--8--8--------|
|-------------------------|--------------------|


     PM--------------------------------|
   Q  Chord diagramE MajorE
||---------------------|---------------------|
||o--------------------|---------------------|
||---------------------|---------------------|
||---5-----------------|---------------------|
||o--5---5-5--5-5--5-5-|--5-5--5-5--5-5--5-5-|
||---5---5-5--5-5--5-5-|--5-5--5-5--5-5--5-5-|
|
|  ~~~~~~~~~~~~~~~~~~~~~~~~~~~~~~~~~~~~~~~~~
|  Q  Q  Q  Q   Q  Q  Q  Q
||----------------13---|-----------15---13---|
||o-11-------11--------|-11------------------|
||------10-------------|------10-------------|
||---------------------|---------------------|
||o--------------------|---------------------|
||---------------------|---------------------|


    PM-----------------------------|
  Q  Chord diagramE MajorE
|--------------------|--------------------|
|--------------------|--------------------|
|--------------------|--------------------|
|--1-----------------|--------------------|
|--1---1-1--1-1--1-1-|--1-1--1-1--1-1--1-1|
|--1---1-1--1-1--1-1-|--1-1--1-1--1-1--1-1|
|
|~~~~~~~~~~~~~~~~~~~~~~~~~~~~~~~~~~~~~~~~
| Q  Q  Q  Q   Q  Q  Q  Q
|---------------13---|-----------15---13--|
|-11-------11--------|-11-----------------|
|-----10-------------|------10------------|
|--------------------|--------------------|
|--------------------|--------------------|
|--------------------|--------------------|


    PM--------------------------------|
  Q  Chord diagramE MajorE
|--------------------|---------------------|
|--------------------|---------------------|
|--3-----------------|---------------------|
|--3---3-3--3-3--3-3-|--3-3--3-3--3-3--3-3-|
|--1---1-1--1-1--1-1-|--1-1--1-1--1-1--1-1-|
|--------------------|---------------------|
|
| ~~~~~~~~~~~~~~~~~~~~~~~~~~~~~~~~~~~~~~
| Q  Q  Q  Q   Q  Q  Q  Q
|---------------13---|----------------13---|
|-11-------11--------|-11--------11--------|
|-----10-------------|------10-------------|
|--------------------|---------------------|
|--------------------|---------------------|
|--------------------|---------------------|


 Chord diagramE MajorE
|-----------------|------------------||
|-----------------|-----------------o||
|-----------------|------------------||
|-3---------------|------------------||
|-3-3---3-3---3-3-|---3-3---3---3---o||
|-3-3---3-3---3-3-|---3-3---3---3----||
|
| Chord diagramE MajorE
|-----------------|------------------||
|-----------------|-----------------o||
|-----------------|------------------||
|-3---------------|------------------||
|-3-3---3-3---3-3-|---3-3---3---3---o||
|-3-3-x-3-3---3-3-|-x-3-3---3---3----||


 Q Q Q Q Q Q Q Q  Q Q Q Q Q Q Q Q
|-------------------------|-------------------------|
|-------------------------|-------------------------|
|-------------------------|-------------------------|
|-5-----------------------|-------------------------|
|-5--5--5--5--5--5--5--5--|-5--5--5--5--5--5--5--5--|
|-5--5--5--5--5--5--5--5--|-5--5--5--5--5--5--5--5--|
|
| ~~~~~~~~~~~~~~~~~~~~~~~~~~~~~~~~~~~~~~~~~~~~~~~~~~~
| Q Q Q Q Q Q Q Q  Q Q Q Q Q Q Q Q
|-------------------------|-------------------------|
|-------------------------|-------------------------|
|-------------------------|-------------------------|
|-------------------------|-------------------------|
|-6--6--6--5--5--5--5--5--|-6--6--6--5--5--5--5--5--|
|-------------------------|-------------------------|


 Q Q Q Q Q Q Q Q  Q Q Q Q Q Q Q Q
|-------------------------|---------------------------|
|-------------------------|---------------------------|
|-------------------------|---------------------------|
|-1-----------------------|---------------------------|
|-1--1--1--1--1--1--1--1--|-1--1--1--1--1--1--1--1----|
|-1--1--1--1--1--1--1--1--|-1--1--1--1--1--1--1--1----|
|
|~~~~~~~~~~~~~~~~~~~~~~~~~~~~~~~~~~~~~~~~~~~~  ~
| Q Q Q Q Q Q Q Q  Q Q Q Q Q Q Q Q
|-------------------------|---------------------------|
|-------------------------|---------------------------|
|-------------------------|---------------------------|
|-------------------------|---------------------------|
|-1--1--3--3--5--5--6--6--|-8--8--8--8--8--8--8--8----|
|-------------------------|---------------------------|


 Q Q Q Q Q Q Q Q  Q Q Q Q Q Q  Q  Q
|-------------------------|---------------------------|
|-------------------------|---------------------------|
|-3-----------------------|---------------------------|
|-3--3--3--3--3--3--3--3--|-3--3--3--3--3--3---3---3--|
|-1--1--1--1--1--1--1--1--|-1--1--1--1--1--1---1---3--|
|-------------------------|------------------------3--|
|
| ~~~~~~~~~~~~~~~~~~~~~~~~~~~~~~~~~~~~~~~~~~~~~~~~~~~~~
| Q Q Q Q Q Q Q Q  Q Q Q Q Q Q  Q  Q
|-------------------------|---------------------------|
|-------------------------|---------------------------|
|-------------------------|---------------------------|
|-8--8--8--7--7--7--8--8--|-8--7--7--7--8--8--10--10--|
|-------------------------|---------------------------|
|-------------------------|---------------------------|


  Q  Q  Q  Q  Q  Q  Q  Q   Q  Q  Q  Q
|---------------------------------|-----------------|
|---------------------------------|-----------------|
|---------------------------------|-----------------|
|---------------------------------|-----------------|
|--3---3---3---3---3---3---3---3--|--3---3---3---3--|
|--3---3---3---3---3---3---3---3--|--3---3---3---3--|
|
|~~~~~~~~~~~~~~~~~~~~~~~~~~~~~~~~~~~~~~~~~~~~~~~~~~
| Q  Q  Q  Q  Q  Q  Q  Q   Q  Q  Q  Q
|---------------------------------|-----------------|
|---------------------------------|-----------------|
|---------------------------------|-----------------|
|-12--12--13--13--15--15--15--15--|-15--15--15--15--|
|---------------------------------|-----------------|
|---------------------------------|-----------------|


 Chord diagramE MajorE
|-------------------------------------------------------------|
|-------------------------------------------------------------|
|--------------------------------------------------3-3-3-3-3--|
|-5-5-5-5-5---------------1-1-1-1-1----------------3-3-3-3-3--|
|-5-5-5-5-5---------------1-1-1-1-1----------------1-1-1-1-1--|
|-5-5-5-5-5---------------1-1-1-1-1---------------------------|
|
| Chord diagramE MajorE
|-------------------------------------------------------------|
|-------------------------------------------------------------|
|--------------------------------------------------3-3-3-3-3--|
|-5-5-5-5-5---------------1-1-1-1-1----------------3-3-3-3-3--|
|-5-5-5-5-5---------------1-1-1-1-1----------------1-1-1-1-1--|
|-5-5-5-5-5---------------1-1-1-1-1---------------------------|


 W    Q Chord diagramE MajorE
|-------------------------|-----------------|
|-------------------------|-----------------|
|-------------------------|-----------------|
|-------------3-3-3-3-3---|-3-3-3-3-3-3-3-3-|
|-------------3-3-3-3-3---|-3-3-3-3-3-3-3-3-|
|-------------3-3-3-3-3---|-3-3-3-3-3-3-3-3-|
|
| W    Q Chord diagramE MajorE
|-------------------------|-----------------|
|-------------------------|-----------------|
|-------------3-3-3-3-5-5-|-5-5-7-7-7-7-8-8-|
|-------------3-3-3-3-5-5-|-5-5-7-7-7-7-8-8-|
|-------------1-1-1-1-3-3-|-3-3-5-5-5-5-6-6-|
|-------------------------|-----------------|


 Chord diagramE MajorE
|-----------------------------|---------------------------|
|-----------------------------|---------------------------|
|-----------------------------|---------------------------|
|-3-3--3--3--3--3--3--3--3--3-|--3--3--3--3--3--3--3--3---|
|-3-3--3--3--3--3--3--3--3--3-|--3--3--3--3--3--3--3--3---|
|-3-3--3--3--3--3--3--3--3--3-|--3--3--3--3--3--3--3--3---|
|
| Chord diagramE MajorE
|-----------------------------|---------------------------|
|-----------------------------|---------------------------|
|-8-8-10-10-10-10-10-10-10-10-|-10-10-10-10-10-10-10-10---|
|-8-8-10-10-10-10-10-10-10-10-|-10-10-10-10-10-10-10-10---|
|-6-6--8--8--8--8--8--8--8--8-|--8--8--8--8--8--8--8--8---|
|-----------------------------|---------------------------|


     PM--------------------------------|
   Q  Chord diagramE MajorE
||---------------------|---------------------|
||o--------------------|---------------------|
||---------------------|---------------------|
||---5-----------------|---------------------|
||o--5---5-5--5-5--5-5-|--5-5--5-5--5-5--5-5-|
||---5---5-5--5-5--5-5-|--5-5--5-5--5-5--5-5-|
|
|  ~~~~~~~~~~~~~~~~~~~~~~~~~~~~~~~~~~~~~~~~~
|  Q  Q  Q  Q   Q  Q  Q  Q
||----------------13---|-----------15---13---|
||o-11-------11--------|-11------------------|
||------10-------------|------10-------------|
||---------------------|---------------------|
||o--------------------|---------------------|
||---------------------|---------------------|


    PM-----------------------------|
  Q  Chord diagramE MajorE
|--------------------|--------------------|
|--------------------|--------------------|
|--------------------|--------------------|
|--1-----------------|--------------------|
|--1---1-1--1-1--1-1-|--1-1--1-1--1-1--1-1|
|--1---1-1--1-1--1-1-|--1-1--1-1--1-1--1-1|
|
|~~~~~~~~~~~~~~~~~~~~~~~~~~~~~~~~~~~~~~~~
| Q  Q  Q  Q   Q  Q  Q  Q
|---------------13---|-----------15---13--|
|-11-------11--------|-11-----------------|
|-----10-------------|------10------------|
|--------------------|--------------------|
|--------------------|--------------------|
|--------------------|--------------------|


    PM--------------------------------|
  Q  Chord diagramE MajorE
|--------------------|---------------------|
|--------------------|---------------------|
|--3-----------------|---------------------|
|--3---3-3--3-3--3-3-|--3-3--3-3--3-3--3-3-|
|--1---1-1--1-1--1-1-|--1-1--1-1--1-1--1-1-|
|--------------------|---------------------|
|
| ~~~~~~~~~~~~~~~~~~~~~~~~~~~~~~~~~~~~~~
| Q  Q  Q  Q   Q  Q  Q  Q
|---------------13---|----------------13---|
|-11-------11--------|-11--------11--------|
|-----10-------------|------10-------------|
|--------------------|---------------------|
|--------------------|---------------------|
|--------------------|---------------------|


 Chord diagramE MajorE
|-----------------|------------------||
|-----------------|-----------------o||
|-----------------|------------------||
|-3---------------|------------------||
|-3-3---3-3---3-3-|---3-3---3---3---o||
|-3-3---3-3---3-3-|---3-3---3---3----||
|
| Chord diagramE MajorE
|-----------------|------------------||
|-----------------|-----------------o||
|-----------------|------------------||
|-3---------------|------------------||
|-3-3---3-3---3-3-|---3-3---3---3---o||
|-3-3-x-3-3---3-3-|-x-3-3---3---3----||


   Chord diagramE MajorE
||--------------------------|-------------------------|
||o-11-11-11-11-11-11-11-11-|-11-11-11-11-11-11-11-11-|
||---x--x--x--x--x--x--x--x-|--x--x--x--x--x--x--x--x-|
||---8--8--8--8--8--8--8--8-|--8--8--8--8--8--8--8--8-|
||o-------------------------|-------------------------|
||--------------------------|-------------------------|
|
|     PM--------------------------------------|
|  Q   Chord diagramE MajorE
||--------------------------|-------------------------|
||o-------------------------|-------------------------|
||--------------------------|-------------------------|
||---5----------------------|-------------------------|
||o--5-----5--5--5--5--5--5-|--5--5--5--5--5--5--5--5-|
||---5-----5--5--5--5--5--5-|--5--5--5--5--5--5--5--5-|
|
|  Gtr III
|  ~~~~~~~~~~~~~~~~~~~~~~~~~~~~~~~~~~~~~~~~~~~~~~~~~~
|  Q   Q   Q   Q    Q   Q   Q   Q
||--------------------13----|-------------15----13----|
||o-11----------11----------|-11----------------------|
||--------10----------------|-------10----------------|
||--------------------------|-------------------------|
||o-------------------------|-------------------------|
||--------------------------|-------------------------|


  Chord diagramE MajorE
|-------------------------|------------------------|
|-13-13-13-13-13-13-13-13-|-13-13-13-13-13-13-13-13|
|--x--x--x--x--x--x--x--x-|--x--x--x--x--x--x--x--x|
|-10-10-10-10-10-10-10-10-|-10-10-10-10-10-10-10-10|
|-------------------------|------------------------|
|-------------------------|------------------------|
|
|    PM-----------------------------------|
| Q   Chord diagramE MajorE
|-------------------------|------------------------|
|-------------------------|------------------------|
|-------------------------|------------------------|
|--1----------------------|------------------------|
|--1-----1--1--1--1--1--1-|--1--1--1--1--1--1--1--1|
|--1-----1--1--1--1--1--1-|--1--1--1--1--1--1--1--1|
|
|~~~~~~~~~~~~~~~~~~~~~~~~~~~~~~~~~~~~~~~~~~~~~~~~
| Q   Q   Q   Q    Q   Q   Q   Q
|-------------------13----|-------------15----13---|
|-11----------11----------|-11---------------------|
|-------10----------------|-------10---------------|
|-------------------------|------------------------|
|-------------------------|------------------------|
|-------------------------|------------------------|


  Chord diagramE MajorE
|-------------------------|-------------------------|
|-15-15-15-15-15-15-15-15-|-15-15-15-15-15-15-15-15-|
|--x--x--x--x--x--x--x--x-|--x--x--x--x--x--x--x--x-|
|-12-12-12-12-12-12-12-12-|-12-12-12-12-12-12-12-12-|
|-------------------------|-------------------------|
|-------------------------|-------------------------|
|
|    PM--------------------------------------|
| Q   Chord diagramE MajorE
|-------------------------|-------------------------|
|-------------------------|-------------------------|
|--3----------------------|-------------------------|
|--3-----3--3--3--3--3--3-|--3--3--3--3--3--3--3--3-|
|--1-----1--1--1--1--1--1-|--1--1--1--1--1--1--1--1-|
|-------------------------|-------------------------|
|
| ~~~~~~~~~~~~~~~~~~~~~~~~~~~~~~~~~~~~~~~~~~~~~~
| Q   Q   Q   Q    Q   Q   Q   Q
|-------------------13----|-------------------13----|
|-11----------11----------|-11----------11----------|
|-------10----------------|-------10----------------|
|-------------------------|-------------------------|
|-------------------------|-------------------------|
|-------------------------|-------------------------|


  Chord diagramE MajorE
|-----------------------|----------------------||
|-18-18---18-18---18-18-|---18-18---18---18---o||
|--x--x----x--x----x--x-|----x--x----x----x----||
|-15-15---15-15---15-15-|---15-15---15---15----||
|-----------------------|---------------------o||
|-----------------------|----------------------||
|
| Chord diagramE MajorE
|-----------------------|----------------------||
|-----------------------|---------------------o||
|-----------------------|----------------------||
|--3--------------------|----------------------||
|--3--3----3--3----3--3-|----3--3----3----3---o||
|--3--3----3--3----3--3-|----3--3----3----3----||
|
| Chord diagramE MajorE
|-----------------------|----------------------||
|-----------------------|---------------------o||
|-----------------------|----------------------||
|--3--------------------|----------------------||
|--3--3----3--3----3--3-|----3--3----3----3---o||
|--3--3-x--3--3----3--3-|-x--3--3----3----3----||


 Q Q Q Q Q Q Q Q  Q Q Q Q Q Q Q Q
|-------------------------|-------------------------|
|-------------------------|-------------------------|
|-------------------------|-------------------------|
|-5-----------------------|-------------------------|
|-5--5--5--5--5--5--5--5--|-5--5--5--5--5--5--5--5--|
|-5--5--5--5--5--5--5--5--|-5--5--5--5--5--5--5--5--|
|
| ~~~~~~~~~~~~~~~~~~~~~~~~~~~~~~~~~~~~~~~~~~~~~~~~~~~
| Q Q Q Q Q Q Q Q  Q Q Q Q Q Q Q Q
|-------------------------|-------------------------|
|-------------------------|-------------------------|
|-------------------------|-------------------------|
|-------------------------|-------------------------|
|-6--6--6--5--5--5--5--5--|-6--6--6--5--5--5--5--5--|
|-------------------------|-------------------------|


 Q Q Q Q Q Q Q Q  Q Q Q Q Q Q Q Q
|-------------------------|---------------------------|
|-------------------------|---------------------------|
|-------------------------|---------------------------|
|-1-----------------------|---------------------------|
|-1--1--1--1--1--1--1--1--|-1--1--1--1--1--1--1--1----|
|-1--1--1--1--1--1--1--1--|-1--1--1--1--1--1--1--1----|
|
|~~~~~~~~~~~~~~~~~~~~~~~~~~~~~~~~~~~~~~~~~~~~  ~
| Q Q Q Q Q Q Q Q  Q Q Q Q Q Q Q Q
|-------------------------|---------------------------|
|-------------------------|---------------------------|
|-------------------------|---------------------------|
|-------------------------|---------------------------|
|-1--1--3--3--5--5--6--6--|-8--8--8--8--8--8--8--8----|
|-------------------------|---------------------------|


  Q  Q  Q  Q   Q  Q  Q  Q   Q  Q  Q  Q   Q  Q  Q  Q
|-----------------|-----------------|-----------------|-----------------|
|-----------------|-----------------|-----------------|-----------------|
|--3--------------|-----------------|-----------------|-----------------|
|--3---3---3---3--|--3---3---3---3--|--3---3---3---3--|--3---3---3---3--|
|--1---1---1---1--|--1---1---1---1--|--1---1---1---1--|--1---1---1---1--|
|-----------------|-----------------|-----------------|-----------------|
|
| ~~~~~~~~~~~~~~~~~~~~~~~~~~~~~~~~~~~~~~~~~~~~~~~~~~~~~~~~~~~~~~~~~~~~
| Q  Q  Q  Q   Q  Q  Q  Q   Q  Q  Q  Q   Q  Q  Q  Q
|-----------------|-----------------|-----------------|-----------------|
|-11--11--11--10--|-10--10--11--11--|-11--10--10--10--|-11--11--13--13--|
|--x---x---x---x--|--x---x---x---x--|--x---x---x---x--|--x---x---x---x--|
|--8---8---8---7--|--7---7---8---8--|--8---7---7---7--|--8---8--10--10--|
|-----------------|-----------------|-----------------|-----------------|
|-----------------|-----------------|-----------------|-----------------|


  Q  Q  Q  Q   Chord diagramE MajorE
|-----------------|-----------------------|------------------------|
|-----------------|-----------------------|------------------------|
|-----------------|-----------------------|------------------------|
|--3--------------|--3--------------------|------------------------|
|--3---3---3---3--|--3--3----3--3----3--3-|----3--3----3----3------|
|--3---3---3---3--|--3--3----3--3----3--3-|----3--3----3----3------|
|
| ~~~~~~~~~~~~~~
| Q  Q  Q  Q   Chord diagramE MajorE
|-----------------|-----------------------|------------------------|
|-15--15--16--16--|-18-18---18-18---18-18-|---18-18---18---18------|
|--x---x---x---x--|--x--x----x--x----x--x-|----x--x----x----x------|
|-12--12--13--13--|-15-15---15-15---15-15-|---15-15---15---15------|
|-----------------|-----------------------|------------------------|
|-----------------|-----------------------|------------------------|


 Chord diagramE MajorE Q  Q
|-----------------|----------------|
|-----------------|----------------|
|-----------------|----------------|
|-5-5---5-5-5---5-|-5-5---5-5\-----|
|-5-5-x-5-5-5-x-5-|-5-5-x-5-5\-----|
|-5-5-x-5-5-5-x-5-|-5-5-x-5-5\-----|
|
| Chord diagramE MajorE Q  Q
|-----------------|----------------|
|-----------------|----------------|
|-----------------|----------------|
|-5-5---5-5-5---5-|-5-5---5-5\-----|
|-5-5-x-5-5-5-x-5-|-5-5-x-5-5\-----|
|-5-5-x-5-5-5-x-5-|-5-5-x-5-5\-----|


Duration 🏷Legend
---------------
W - whole; H - half; Q - quarter; Chord diagramE MajorE - 8th; S - 16th; T - 32nd; X - 64th; a - acciaccatura
+ - note tied to previous; . - note dotted; .. - note double dotted
Uncapitalized letters represent notes that are staccato (1/2 duration)
Irregular groupings are notated above the duration line
Duration letters will always appear directly above the note/fret number it represents the
duration for. Duration letters with no fret number below them represent rests. Multi-
bar rests are notated in the form Wxn, where n is the number of bars to rest for. Low
melody durations appear below the staff

Tablature 🏷Legend
----------------
 h  - hammer-on
 p  - pull-off
 b  - bend
 pb - pre-bend
 r  - bend release (if no number after the r, then release immediately)
 /\ - slide into or out of (from/to "nowhere")
 s  - legato slide
 S  - shift slide
 - natural harmonic
[n] - artificial harmonic
n(n) - tapped harmonic
 ~  - vibrato
 tr - trill
 T  - tap
 TP - trem. picking
 PM - palm muting
\n/ - tremolo bar dip; n = amount to dip
 \n - tremolo bar down
 n/ - tremolo bar up
/n\ - tremolo bar inverted dip
 =  - hold bend; also acts as connecting device for hammers/pulls
  - volume swell (louder/softer)
 x  - on rhythm slash represents muted slash
 o  - on rhythm slash represents single note slash

Misc 🏷Legend
-----------
 | - bar
|| - double bar
||o - repeat start
o|| - repeat end
*| - double bar (ending)
 : - bar (freetime)
 $ - Segno
 & - Coda
Tempo markers - = BPM(8/16=s8/s16), where s8 = swing 8ths, s16 = swing 16ths


***************************************************************************************
* Generated using Power Tab Editor by Brad Larsen - http://powertab.guitarnetwork.org *

Other versions of Face Down

Alternative guitar chords and tabs for Face Down by The Red Jumpsuit Apparatus

VersionType
Face downChords
Face downTabs
Face down acousticChords
Face down acousticTabs

[ Privacy | About us ]

Welcome to the guitar community

Why join and log in?
- Get songbook with favourite songs
- Get custom made front page
- Submit chords and tabs
- Submit guitar-cover videos
- Get a lot of thumbs up for your work

Songbook

Last visited songs

Site
Home
Search
Community
Submit chords

Video

No video for this page. Check out how you can submit guitar-cover videos here

Search tabs and chords

Browse by artist

A B C D E F G H I J K L M N O P Q R S T U V W X Y Z #


Menu

Search

Video

Bookmark

Login