GuitarTabsExplorer icon
GuitarTabsExplorer icon

Log in

Songbook

  • Log in to add and see bookmarks

Last visited songs

  • No songs visited yet...
Cat And Mouse by The Red Jumpsuit Apparatus

Cat And Mouse tab by The Red Jumpsuit Apparatus

Tabs

This is the piano part, tabbed to guitar. Intro has tough fingerings. If you
can't do it, it's your problem cause this is right.

e|-------------------------------8--7--5------------------|
b|-------5-5-----5-5-----5-5------------------------------|
g|------5-5-5---5-5-5---5-5-5------5-5--5-----------------|
d|-------------------------------5------------------------|
a|--------------------------------------------------------|
Chord diagramE MajorE|---5--------3--------8----------------------------------|

e|-------------------------------8---10--12----------------|
b|-------5-5-----5-5-----5-5-------------------------------|
g|------5-5-5---5-5-5---5-5-5------------------------------|
d|---------------------------------10--10------------------|
a|-------------------------------10------------------------|
Chord diagramE MajorE|---5--------3--------8-----------------------------------|
e|---------------------------------------------------------|
b|--------------------------------1--1---------------------|
g|---------------------------------0--0--------------------|
d|--3-2-3-2----3-2-3-2--3-2-3-2----------------------------|
a|-0---0---------------3---3----------3---3----------------|
Chord diagramE MajorE|------------3---3----------------------------------------|


Chord diagramC majorC
Softly we tremble tonight,
Chord diagramC majorC
picture perfect fading smiles are all that's left in site,
Chord diagramC majorC
I said I'd never leave you'll never change
    Chord diagramC majorC
I'm not satisfied with where I'm at in life.

Chord diagramFF
  Chord diagramA minorAm I supposed to be happy?

  With all I ever wanted, it comes with a price.
Chord diagramFF
  Chord diagramA minorAm I supposed to be happy?

  With all I ever wanted, it comes with a price.
Chord diagramFF
  You said, you said that you would die for me….

We made plans to grow old,
believe me there was truth in all those stories that I told.
Lost in a simple game cat and mouse are we the same
people as before this came to light?

Chord diagramA minorAm I supposed to be happy?
with all I ever wanted, it comes with a price.
Chord diagramA minorAm I supposed to be happy?
with all I ever wanted, it comes with a price.
You said, you said that you would die for me…

N.F
You must live for me too...
    Chord diagramC majorC
For me too...yeah, yeah…
          Chord diagramFF
said that you would die for me…

Chord diagramA minorAm I supposed to be happy?
with all I ever wanted, it comes with a price.
Chord diagramA minorAm I supposed to be happy?
with all I ever wanted, it comes with a price
You said, you said that you would die for me.

[ Privacy | About us ]

Welcome to the guitar community

Why join and log in?
- Get songbook with favourite songs
- Get custom made front page
- Submit chords and tabs
- Submit guitar-cover videos
- Get a lot of thumbs up for your work

Songbook

Last visited songs

Site
Home
Search
Community
Submit chords

Video

No video for this page. Check out how you can submit guitar-cover videos here

Search tabs and chords

Browse by artist

A B C D E F G H I J K L M N O P Q R S T U V W X Y Z #


Menu

Search

Video

Bookmark

Login