Log in

One click and you are in

Login with Facebook Login with Google

Why sign up and log in

Guitar Tabs Explorer
Red Hot Chili Peppers bass tabs for Whatchu thinkin

Whatchu Thinkin bass tab by Red Hot Chili Peppers

Red Hot Chili Peppers bass tabs for Whatchu thinkin

Bass tabs

Intro:
 (0:00)

G|-------12----14-------16-|
D|----14----12-------14----|
A|-12-------------12-------|
E|-------------------------|


G|------17-16---------16-------|
D|---------------12-14---14-15-|
A|-12---------14---------------|
E|-----------------------------|

G|-12-14------------------|
D|-------12-14---15-14----|
A|-------------15------14-|
E|------------------------|

G|-16-17-------12---16-|
D|---------------12----|
A|-------15-10---------|
E|---------------------|




Verse 1: (0:11)

G|-------12----14-------16-|
D|----14----12-------14----|
A|-12-------------12-------|
E|-------------------------|

G|------17-16---------16-------|
D|---------------12-14---14-15-|
A|-12---------14---------------|
E|-----------------------------|

G|-12-14------------------|
D|-------12-14---15-14----|
A|-------------15------14-|
E|------------------------|

G|-16-17-------12---16-|
D|---------------12----|
A|-------15-10---------|
E|---------------------|
All x3

On The Third Repetition
The Last Bar Will Be

G|-16-17----|
D|----------|
A|-------15-|
E|----------|

Chorus: (0:44)

G|------------------------------|
D|------------------------------|
A|------------------------------|
E|-0--3--3-5555----0--3--3-5555-|

G|------------------------------|
D|------------------------------|
A|------------------3-----------|
E|-0--3--1-1111---5--53--1-1111-|

G|------------------------------|
D|------------------------------|
A|---------3---------------75---|
E|-0--3--5--535---0--3--5----85-|

G|---------------------------------12---16|
D|-----------------------------------12---|
A|------------------------------10--------|
E|-0--3--1-1111---5---3--1-1111-----------|


Verse 2: (1:07)

Same As


Verse 1 (Same Ending Too)


Chorus: (1:39)

G|-----------------------------------|
D|-----------------------------------|
A|-----------------------------------|
E|-0--3--3-5555----0--3--3-/17171717-|

G|------------------------------|
D|------------------------------|
A|------------------35-53-------|
E|-0--3--1-1111---5---3--1-1111-|

G|------------------------------|
D|------------------------------|
A|---------5--------------------|
E|-0--3--3--555----0--3--3-5555-|

G|--------------------------------------12---16|
D|----------------------------------------12---|
A|-----------------------------------10--------|
E|-0--3--1-1111---5---3--1-/11111111-----------|


Verse 3: (2:03)

Same As


Verse 1 X2 (Same Ending Too)


Chorus: (2:24)

G|------------------------------|
D|--------------------------7---|
A|-------------------------7-7--|
E|-0--3--3-5555----0--3--5----5-|

G|------------------------------|
D|----------3-------------------|
A|---------3-3------------------|
E|-0--3--1----1---5---3--1-1111-|

G|------------------------------|
D|----------------------/7-5----|
A|---------75---------------75--|
E|-0--3--5---85---0---3-------5-|

G|--------------------------------9-----12---|
D|-------------------------------9-9--12--12-|
A|------------------------------7---10-------|
E|-0--3--1-1111---5---3--1-1111--------------|


Outro: (2:48)

G|-----14--14-----9-------12-|
D|---14--14------9------12---|
A|-12-----------7--/--10-----|
E|---------------------------|

G|------14--14-----9------12-|
D|----14--14------9-----12---|
A|/12------------7---/10-----|
E|---------------------------|

G|-----10--10---14-----12-----|
D|---10--10-------14-----12---|
A|-8----------------12\----10-|
E|----------------------------|

G|-----10--10-----9-------12-|
D|---10--10------9------12---|
A|/8------------7--/--10-----|
E|---------------------------|

G|-----14--14-----9-------12-|
D|---14--14------9------12---|
A|/12-----------7--/--10-----|
E|---------------------------|

G|-----14--14-----9-------12-|
D|---14--14------9------12---|
A|/12-----------7--/--10-----|
E|---------------------------|

G|-----10--10---14-----12-----|
D|---10--10-------14-----12---|
A|-8----------------12\----10-|
E|----------------------------|

G|-----10--10-----9-------12-|
D|---10--10------9------12---|
A|/8------------7--/--10-----|
E|---------------------------|

G|-----14/16\14---9-------12-|
D|---14----------9------12---|
A|/12-----------7--/--10-----|
E|---------------------------|

G|-----14/16\14---9-------12-|
D|---14----------9------12---|
A|/12-----------7--/--10-----|
E|---------------------------|

G|-----10--10---14-----12-----|
D|---10--10-------14-----12---|
A|-8----------------12\----10-|
E|----------------------------|

G|-----10--10-----9-------12-|
D|---10--10------9------12---|
A|-8------------7--/--10-----|
E|---------------------------|

G|-----14--14-----9-------12-|
D|---14--14------9------12---|
A|/12-----------7--/--10-----|
E|---------------------------|

G|-----14--14-----9-------12-|
D|---14--14------9------12---|
A|/12-----------7--/--10-----|
E|---------------------------|

G|-----10--10---14-----12-----|
D|---10--10-------14-----12---|
A|-8----------------12\----10-|
E|----------------------------|

G|-----10--10-----12---16-----|
D|---10--10---------12--------|
A|/8------------10---------12-|
E|----------------------------|


************************************

| / Slide up
| \ Slide down

************************************
ⓘ Bass guitar tab for 'Whatchu Thinkin' by Red Hot Chili Peppers, an alternative rock band formed in 1983 from Los Angeles, California, USA. Red Hot Chili Peppers is known for their moody rock/pop music.

Almost there ...

Sign in to get your own page with links to favourite songs and more. You are just one click away...

Login with Facebook Login with Google