Log in

One click and you are in

Login with Facebook Login with Google

Why sign up and log in

Guitar Tabs Explorer
Red Hot Chili Peppers bass tabs for What it is

What It Is bass tab by Red Hot Chili Peppers

Red Hot Chili Peppers bass tabs for What it is

Bass tabs

I've only bothered to transcribe the main two riffs as everyone else seems
utterly incapable of it. The rest can be worked out easily.

Steve Hainsworth
pls quote address: stevoh@mail.com

---------------------------------------------


intro:
|----------------|--32-x-x--------|
|----------------|----------------|
|----------------|----------------|
|0---x-0-0---x-00|----x-x-3---5---|


verse:
|---------0-----9|---------0-----1|
|------------02--|------------02--|
|------02--------|------02--------|
|0---x---x--x--x-|0---x---x--x--x-|

key:
every - (or other) denotes a 1/16th note.
number gives fret
x denotes a muted note.
any pair like 02 will be hammered.

Almost there ...

Sign in to get your own page with links to favourite songs and more. You are just one click away...

Login with Facebook Login with Google