Log in

One click and you are in

Login with Facebook Login with Google

Why sign up and log in

Guitar Tabs Explorer
Red Hot Chili Peppers bass tabs for Veronica

Bass tabs

Rest until 0:42

G|-------------------------|-------------------------|
D|-------------------------|-------------------------|
A|-------------------------|-------------------------|
E|-2~--------------2.------|-2~----------------------|
  1 + + + 2 + + + 3 + + +  1 + + + 2 + + + 3 + + +


Chorus 1: "Danger, danger "
G|-------------------------|-------------------------|-------------------------|-------------------------|
D|-------------------------|-------------------------|-------------------------|-------------------------|
A|-----------------2---3---|-5.------5-------5---6---|-7~--------------7-----5-|-7-----5-----------------|
E|-3.------3.--------------|-------------------------|-------------------------|---------7-------\-------|
  1 + + + 2 + + + 3 + + +  1 + + + 2 + + + 3 + + +  1 + + + 2 + + + 3 + + +  1 + + + 2 + + + 3 + + +

G|-------------------------|---------7---------------|-------------------------|-------------------------|
D|-------------------------|-0-----7-------7---------|-------------------------|-------------------------|
A|-----------------2---3---|-----------------5-----7-|-----------------------0-|-5-----------------------|
E|-3-------3---------------|-------------------------|-7~----------------------|---------7-------5-------|
  1 + + + 2 + + + 3 + + +  1 + + + 2 + + + 3 + + +  1 + + + 2 + + + 3 + + +  1 + + + 2 + + + 3 + + +

G|-------------------------|-------------------------|-------------------------|-------------------------|
D|-------------------------|-------------------------|-------------------------|-------------------------|
A|-----------------2---3---|-5-------5-------5---6---|-7-------------5-7-----5-|-7-----5-----------------|
E|-3~----------------------|-------------------------|-------------------------|---------7-------5-----7-|
  1 + + + 2 + + + 3 + + +  1 + + + 2 + + + 3 + + +  1 + + + 2 + + + 3 + + +  1 + + + 2 + + + 3 + + +

G|-------------------------|-------------------------|-------------------------|-------------------------|
D|-------------------------|-------------------------|-------------------------|-------------------------|
A|-----------------2---3---|-5---------------5-----0-|-------------------------|-------------------------|
E|-3-------3---------------|-------------------------|-7-----------------------|-7-------7.------6.------|
  1 + + + 2 + + + 3 + + +  1 + + + 2 + + + 3 + + +  1 + + + 2 + + + 3 + + +  1 + + + 2 + + + 3 + + +

G|---------------------------------|
D|---------------------------------|
A|---------------------------------| Slow down tempo to 4/4
E|-5~------------------------------|
  1 + + + 2 + + + 3 + + + 4 + + +

Verse 3: "My name is Nebraska "
G|-----9---6-----------------------|---------------------------------|
D|-------------7---9---6-------7---|---------7-----------------------|
A|-------------------------7-------|-9.--9-------9~------7---9.------|
E|---------------------------------|---------------------------------|
  1 + + + 2 + + + 3 + + + 4 + + +  1 + + + 2 + + + 3 + + + 4 + + +

G|-----9---6-----------------------|-------------11.-----9.----------|
D|-------------7---9---6-----------|-----------------------------11.-|
A|-------------------------7---8---|-9.--9---------------------------|
E|---------------------------------|---------------------------------|
  1 + + + 2 + + + 3 + + + 4 + + +  1 + + + 2 + + + 3 + + + 4 + + +

G|-----9---6-----------------------|---------------------------------|
D|-------------7---9---6-----------|---------------------------------|
A|-------------------------7---8---|-9.------7---9~------9---9.------|
E|---------------------------------|-----9---------------------------|
  1 + + + 2 + + + 3 + + + 4 + + +  1 + + + 2 + + + 3 + + + 4 + + +

G|---------------------------------|---------------------------------|
D|---------------------------------|---------------------------------|
A|---------------------------------|-5---5---5---5.------7---7.------|
E|-7~------7---7~------7---7.------|---------------------------------|
  1 + + + 2 + + + 3 + + + 4 + + +  1 + + + 2 + + + 3 + + + 4 + + +

G|-----9.--6-----------------------|---------------------------------|
D|-------------7---9---6-----------|---------7-----------------------|
A|-------------------------7---8---|-9.--9-------9~------9---9.------|
E|---------------------------------|---------------------------------|
  1 + + + 2 + + + 3 + + + 4 + + +  1 + + + 2 + + + 3 + + + 4 + + +

G|-----9---6-----------------------|-------------11.-----9.----------|
D|-------------7---9---6-----------|-----------------------------11.-|
A|-------------------------7---8---|-9---9.--------------------------|
E|---------------------------------|---------------------------------|
  1 + + + 2 + + + 3 + + + 4 + + +  1 + + + 2 + + + 3 + + + 4 + + +

G|-----9---6-----------------------|---------------------------------|
D|-------------7---9---6-----------|---------7-----------------------|
A|-------------------------7---8---|-9.--9-------9~------9---9\------|
E|---------------------------------|---------------------------------|
  1 + + + 2 + + + 3 + + + 4 + + +  1 + + + 2 + + + 3 + + + 4 + + +

G|-------------------------|-------------------------|
D|-------------------------|-------------------------|
A|-------------------------|-------------------------| Back to 3/4
E|-2~--------------2.------|-2~----------------------|
  1 + + + 2 + + + 3 + + +  1 + + + 2 + + + 3 + + +


Chorus 2: "Danger, danger "
G|-------------------------|-------------------------|-------------------------|-------------------------|
D|-------------------------|-------------------------|-------5-----------------|-------------------------|
A|-----------------2---3---|-5.------5-------5---6---|-7-------7~--------------|-7-------5---------------|
E|-3.------3.--------------|-------------------------|-------------------------|-----------------7\------|
  1 + + + 2 + + + 3 + + +  1 + + + 2 + + + 3 + + +  1 + + + 2 + + + 3 + + +  1 + + + 2 + + + 3 + + +

G|-------------------------|-------------------------|-------------------------|-------------------------|
D|-------------------------|-------------------------|-------------------------|-------------------------|
A|-----------------2-------|/5-------5-------5-----7-|-------------------------|---------5---------------|
E|-3~----------------------|-------------------------|-7~----------------------|-5-h-7-----------7\------|
  1 + + + 2 + + + 3 + + +  1 + + + 2 + + + 3 + + +  1 + + + 2 + + + 3 + + +  1 + + + 2 + + + 3 + + +

G|-------------------------|-------------------------|-------------------------|-------------------------|
D|-------------------------|-------------------------|-------------------------|/9-------7-----5---------|
A|-----------------2---3---|-5-------5-------5---6---|-7---------------7.------|-----------------7\------|
E|-3~------3---------------|-------------------------|-------------------------|-------------------------|
  1 + + + 2 + + + 3 + + +  1 + + + 2 + + + 3 + + +  1 + + + 2 + + + 3 + + +  1 + + + 2 + + + 3 + + +

G|-------------------------|-------------------------|-------------------------|-------------------------|
D|-------------------------|-------------------------|-------------------------|-------------------------|
A|-----------------2---3---|-5-------5-------5-----7-|-------------------------|-------------------------|
E|-3-------3---------------|-------------------------|-7-----------------------|-7~--------------7-------|
  1 + + + 2 + + + 3 + + +  1 + + + 2 + + + 3 + + +  1 + + + 2 + + + 3 + + +  1 + + + 2 + + + 3 + + +

G|---------------------------------|---------------------------------|
D|---------------------------------|---------------------------------|
A|---------------------------------|---------------------------------|
E|-5~----------------------5.------|-0~------------------------------|
  1 + + + 2 + + + 3 + + + 4 + + +  1 + + + 2 + + + 3 + + + 4 + + +


Verse 4: "My name is I love you "
G|-----9---6-----------------------|---------------------------------|
D|-------------7---9---6-----------|-------------11----------11------|
A|-------------------------7---/---|-9---9.--------------9-----------|
E|---------------------------------|---------------------------------|
  1 + + + 2 + + + 3 + + + 4 + + +  1 + + + 2 + + + 3 + + + 4 + + +

G|-----9---6-----------------------|-------------11.-----9.----------|
D|-------------7---9---6-----------|-----------------------------11.-|
A|-------------------------7---/---|-9---9.--------------------------|
E|---------------------------------|---------------------------------|
  1 + + + 2 + + + 3 + + + 4 + + +  1 + + + 2 + + + 3 + + + 4 + + +

G|-----9---6-----------------------|---------------------------------|
D|-------------7---9---6------/11--|-------------11.---------11.-----|
A|-------------------------7-------|-9---9.--------------9-----------|
E|---------------------------------|---------------------------------|
  1 + + + 2 + + + 3 + + + 4 + + +  1 + + + 2 + + + 3 + + + 4 + + +

G|---------------------------------|---------------------------------|
D|---------------------------------|---------------------------------|
A|---------------------------------|-5---5---5---5.------7---7.------|
E|-7~------7---7~------7---7.------|---------------------------------|
  1 + + + 2 + + + 3 + + + 4 + + +  1 + + + 2 + + + 3 + + + 4 + + +

G|-----9---6-----------------------|---------------------------------|
D|-------------7---9---6-----------|-----7h9p7-----------------------|
A|-------------------------7---8---|-9-----------9-------7---9.------|
E|---------------------------------|---------------------------------|
  1 + + + 2 + + + 3 + + + 4 + + +  1 + + + 2 + + + 3 + + + 4 + + +

G|-----9---6-----------------------|-------------11.----9h11p9-------|
D|-------------7---9---6-----------|-----------------------------11.-|
A|-------------------------7---8---|-9---9.--------------------------|
E|---------------------------------|---------------------------------|
  1 + + + 2 + + + 3 + + + 4 + + +  1 + + + 2 + + + 3 + + + 4 + + +

G|-----9---6-----------------------|---------------------------------|
D|-------------7---9---6-----------|---------7-----------------------|
A|-------------------------7---8---|-9.--9-------9-------9---9.------|
E|---------------------------------|---------------------------------|
  1 + + + 2 + + + 3 + + + 4 + + +  1 + + + 2 + + + 3 + + + 4 + + +

G|---------------------------------|---------------------------------|
D|---------------------------------|---------------------------------|
A|---------------------------------|-5---5---5---5.------7---7.------|
E|-7~------7---7~------7---7.------|---------------------------------|
  1 + + + 2 + + + 3 + + + 4 + + +  1 + + + 2 + + + 3 + + + 4 + + +


Chorus 3: "Danger, danger "
G|-------------------------|-------------------------|-------------------------|-------------------------|
D|-------------------------|-------------------------|-------------------------|-------------------------|
A|-----------------2---3---|-5~--------------5---6---|-7~--------------7-----5-|-7-----5-----------------|
E|-3~----------------------|-------------------------|-------------------------|---------7-------5\------|
  1 + + + 2 + + + 3 + + +  1 + + + 2 + + + 3 + + +  1 + + + 2 + + + 3 + + +  1 + + + 2 + + + 3 + + +

G|-------------------------|-------------------------|-------------------------|-------------------------|
D|-------------------------|-------------------------|-------------------------|-------------------------|
A|-----------------2---3---|-5-------5-------5-----7-|-------------------------|-------------------------|
E|-3-------3---------------|-------------------------|-7-----5-7-------------5-|-7-------5-------7\------|
  1 + + + 2 + + + 3 + + +  1 + + + 2 + + + 3 + + +  1 + + + 2 + + + 3 + + +  1 + + + 2 + + + 3 + + +

G|-------------------------|-------------------------|-------------------------|-7-----------------------|
D|-------------------------|-------------------------|---------5------/9-------|-------9\7-------5\------|
A|-----------------2---3---|-5.------5-------5---6---|-7-----------------------|-------------------------|
E|-3.------3---------------|-------------------------|-------------------------|-------------------------|
  1 + + + 2 + + + 3 + + +  1 + + + 2 + + + 3 + + +  1 + + + 2 + + + 3 + + +  1 + + + 2 + + + 3 + + +

G|-------------------------|-------------------------|-------------------------|-------------------------|
D|-------------------------|-------------------------|-------------------------|-------------------------|
A|-----------------2---3---|-5-------5-------5-/-7---|-------------------------|-------------------------|
E|-3.------3---------------|-------------------------|-7---------------7-------|-7~--------------7-------|
  1 + + + 2 + + + 3 + + +  1 + + + 2 + + + 3 + + +  1 + + + 2 + + + 3 + + +  1 + + + 2 + + + 3 + + +

G|-------------------------|-------------------------|
D|-------------------------|-------------------------|
A|-5~--------------5-------|-5-------5-------5-------|
E|-------------------------|-------------------------|
  1 + + + 2 + + + 3 + + +  1 + + + 2 + + + 3 + + +


Outro: "Been a long time now "
G|-------------------------|-------------------------|-------------------------|-------------------------|
D|-------------------------|-------------------------|-------------------------|--------/11.-------------|
A|-9~----------------------|---------7.------9.------|-12~---------------------|-----------------12.-----|
E|-------------------------|-------------------------|-------------------------|-------------------------|
  1 + + + 2 + + + 3 + + +  1 + + + 2 + + + 3 + + +  1 + + + 2 + + + 3 + + +  1 + + + 2 + + + 3 + + +

G|-------------------------|-------------------------|-------------------------|-------------------------|
D|-------------------------|-------------------------|-14--------------14------|-------------------------|
A|-11~---------------------|---------11.-----11.-----|---------11--------------|---------11--------------|
E|-------------------------|-------------------------|-------------------------|-----------------12----13|
  1 + + + 2 + + + 3 + + +  1 + + + 2 + + + 3 + + +  1 + + + 2 + + + 3 + + +  1 + + + 2 + + + 3 + + +

G|-------------------------|-------------------------|-------------------------|-------------------------|
D|-------------------------|-------------------------|-------------------------|-------------------------|
A|-------------------------|-------------------------|-12~---------------------|-14--b---r-------12------|
E|-14----1214--------------|---------12------14------|-------------------------|-------------------------|
  1 + + + 2 + + + 3 + + +  1 + + + 2 + + + 3 + + +  1 + + + 2 + + + 3 + + +  1 + + + 2 + + + 3 + + +

G|-------------------------|-------------------------|-----------------13------|-------------------------|
D|-------------------------|-------------------------|---------14--------------|-14----------------------|
A|-11~---------------------|-14------11------14------|-15----------------------|---------15------7-------|
E|-------------------------|-------------------------|-------------------------|-------------------------|
  1 + + + 2 + + + 3 + + +  1 + + + 2 + + + 3 + + +  1 + + + 2 + + + 3 + + +  1 + + + 2 + + + 3 + + +

G|-------------------------|-------------------------|-------------------------|-------------------------|
D|-------------------------|-7-----------------------|-------------------------|-------------------------|
A|-9~----------------------|---------9-------7-------|-------------------------|---------7---------------|
E|-------------------------|--------------------9--7-|-5-------7---b---r-----5-|-7---b-------7b--r-----5-|
  1 + + + 2 + + + 3 + + +  1 + + + 2 + + + 3 + + +  1 + + + 2 + + + 3 + + +  1 + + + 2 + + + 3 + + +

G|-------------------------|-------------------------|-------------------------|-5---5-------------------|
D|-------------------------|-------------------------|-----------------6-------|---------6---6-----------|
A|-------------------------|-------------------------|---------7---------------|-----------------7---7---|
E|-4~--------------4-------|-7-------4-------7-------|-8-----------------------|-------------------------|
  1 + + + 2 + + + 3 + + +  1 + + + 2 + + + 3 + + +  1 + + + 2 + + + 3 + + +  1 + + + 2 + + + 3 + + +

G|-------------------------|---------9---------------|-------------------------|---------9---------------|
D|---------------7-------7/|-11-----------11\9-------|-7-------9---b---r-----7-|/11--------------11\-----|
A|-9-----7-9-------9-------|-------------------------|-------------------------|-------------------------|
E|-------------------------|-------------------------|-------------------------|-------------------------|
  1 + + + 2 + + + 3 + + +  1 + + + 2 + + + 3 + + +  1 + + + 2 + + + 3 + + +  1 + + + 2 + + + 3 + + +

G|-------------------------|-------------------------|-----------------13------|-13--------------13------|
D|-6~----------------------|-------------------------|---------14--------------|-------------------------|
A|-------------------------|-11------11------11------|-15----------------------|-------------------------|
E|-------------------------|-------------------------|-------------------------|-------------------------|
  1 + + + 2 + + + 3 + + +  1 + + + 2 + + + 3 + + +  1 + + + 2 + + + 3 + + +  1 + + + 2 + + + 3 + + +

G|-------------------------|-------------------------|-------------------------|-------------------------|
D|-------------------------|-------------------------|-------------------------|-------------------------|
A|-9~--------------------7h|-9-------7---------------|-------------------------|-------------------------|
E|-------------------------|-----------------9\------|-5~----------------------|-7---b---r-------5-------|
  1 + + + 2 + + + 3 + + +  1 + + + 2 + + + 3 + + +  1 + + + 2 + + + 3 + + +  1 + + + 2 + + + 3 + + +

G|-------------------------|-------------------------|-------------------------|---------5~--------------|
D|-------------------------|-------------------------|-------------------------|-6-----------------------|
A|-------------------------|-------------------------|-----------------7-------|-------------------------|
E|-4~--------------7-------|-4~--------------7-------|-4-------8---------------|-------------------------|
  1 + + + 2 + + + 3 + + +  1 + + + 2 + + + 3 + + +  1 + + + 2 + + + 3 + + +  1 + + + 2 + + + 3 + + +

G|-------------------------|-------------------------|-------------------------|-------------------------|
D|-------------------------|-7---------------7-------|-7-------9-------7-------|/11------9-------7-------|
A|/9-------7-------9-------|---------9---------------|-------------------------|-------------------------|
E|-------------------------|-------------------------|-------------------------|-------------------------|
  1 + + + 2 + + + 3 + + +  1 + + + 2 + + + 3 + + +  1 + + + 2 + + + 3 + + +  1 + + + 2 + + + 3 + + +

G|-------------------------|-------------------------|-9---/---13------13------|-13--/---18------18------|
D|-6~--------------6-------|-9-------6-------9-------|-------------------------|-------------------------|
A|-------------------------|-------------------------|-------------------------|-------------------------|
E|-------------------------|-------------------------|-------------------------|-------------------------|
  1 + + + 2 + + + 3 + + +  1 + + + 2 + + + 3 + + +  1 + + + 2 + + + 3 + + +  1 + + + 2 + + + 3 + + +

G|-------------------------|---------9---------------|-------------------------|-------------------------|
D|-------------------------|-9-h-11---------11\9-----|-7-------9b--------------|---------r-------7-------|
A|-------------------------|-------------------------|-------------------------|-------------------------|
E|-------------------------|-------------------------|-------------------------|-------------------------|
  1 + + + 2 + + + 3 + + +  1 + + + 2 + + + 3 + + +  1 + + + 2 + + + 3 + + +  1 + + + 2 + + + 3 + + +

G|-------------------------|-------------------------|-------------------------|-5---5-------------------|
D|-6~----------------------|-6~----------------------|-----------------6---6---|---------6---6-----------|
A|-------------------------|-------------------------|---------7---7-----------|-----------------7---7---|
E|-------------------------|-------------------------|-8---8-------------------|-------------------------|
  1 + + + 2 + + + 3 + + +  1 + + + 2 + + + 3 + + +  1 + + + 2 + + + 3 + + +  1 + + + 2 + + + 3 + + +

G|-------------------------|-------------------------|-------------------------|-9-----------------------|
D|-------------7-----------|-----7-------------------|-7---9---7---9---9-/-11--|-------11\9--7---9---7---|
A|-9---7---9-------9---7---|-9-------9---7---9---7---|-------------------------|-------------------------|
E|-------------------------|-------------------------|-------------------------|-------------------------|
  1 + + + 2 + + + 3 + + +  1 + + + 2 + + + 3 + + +  1 + + + 2 + + + 3 + + +  1 + + + 2 + + + 3 + + +

G|-------------------------|-------------------------|-------------------------|-------------------------|
D|-6~--------------6-------|-9-------6-------9-------|-6-----------------------|-------------------------|
A|-------------------------|-------------------------|---------7---------------|-------------------------|
E|-------------------------|-------------------------|-----------------8-------|-8~----------------------|
  1 + + + 2 + + + 3 + + +  1 + + + 2 + + + 3 + + +  1 + + + 2 + + + 3 + + +  1 + + + 2 + + + 3 + + +

****************************

|  Staccato
| ~ Let ring
| h Hammer-on
| p Pull-off
| b Bend
| r Release
| / Slide up
| \ Slide down

****************************
ⓘ Bass guitar tab for 'Veronica' by Red Hot Chili Peppers, an alternative rock band formed in 1983 from Los Angeles, California, USA. Red Hot Chili Peppers is known for their moody rock/pop music.

Almost there ...

Sign in to get your own page with links to favourite songs and more. You are just one click away...

Login with Facebook Login with Google