Log in

One click and you are in

Login with Facebook Login with Google

Why sign up and log in

Guitar Tabs Explorer
Red Hot Chili Peppers tabs for Suck my kiss

Guitar tabs

SONG:   Suck My Kiss
ARTIST: Red Hot Chili Peppers
ALBUM:  Blood Sugar Sex Magik

h-hammer on
p-pull of
x-palm mute
/-slide
b-bend

this is a sweet ass song, so have some fun wit it

(intro)*repeat intro 2 times*
e|-------------------------------------------
b|-------------------------------------------
g|-------------------------------------------
d|-----0-------------0-------------0---------
a|-----1-----x-x-----1-----x-x-----1-----x-x-
e|-1-3---1-3-x-x-1-3---1-3-x-x-1-3---1-3-x-x-

e|---------------------------------
b|---------------------------------
g|-------------------------7/9-9-9-
d|---------3h5-5-5-5/7-7-7---------
a|-3h5-5-5-------------------------
e|---------------------------------


verse
e|-----------------|---------------------
b|-----------------|---------------------
g|-----------------|---------------------
d|-----------------|---------------------
a|-----x-------x---|-----x---------1h3---
e|-1-3-x-3-1-3-x-3-|-1-3-x-3-1-3-3-----1-
*repeat this upper part 4 times*

e|------------------
b|---9---9---9---10-
g|---8---8---8---9--
d|---7---7---7---8--
a|-8-8-8-8-8-8-9-9--
e|------------------

e|-----------------|---------------------
b|-----------------|---------------------
g|-----------------|---------------------
d|-----------------|---------------------
a|-----x-------x---|-----x---------1h3---
e|-1-3-x-3-1-3-x-3-|-1-3-x-3-1-3-3-----1-
*repeat this upper part 2 times*

e|------------------
b|---9---9---9---10-
g|---8---8---8---9--
d|---7---7---7---8--
a|-8-8-8-8-8-8-9-9--
e|------------------

e|-----------------|-------
b|-----------------|-------
g|-----------------|-------
d|-----------------|-----0-
a|-----x-------x---|-----1-
e|-1-3-x-3-1-3-x-3-|-1-3---

(chorus)
   (e)                 (a)
e|-0-0-----------------0-0-
b|-0-0-----------------2-2-
g|-1-1-4-4-2-2-4-4-2-2-2-2-
d|-2-2-0-0-0-0-0-0-0-0-2-2-
a|-2-2-----------------0-0-
e|-0-0---------------------

   (e)                 (a)
e|-0-0-----------------0-0------
b|-0-0-----------------2-2-4b-0-
g|-1-1-4-4-2-2-4-4-2-2-2-2-4b-0-
d|-2-2-0-0-0-0-0-0-0-0-2-2------
a|-2-2-----------------0-0------
e|-0-0--------------------------

   (e)                 (a)
e|-0-0-----------------0-0-|---------
b|-0-0-----------------2-2-|---------
g|-1-1-4-4-2-2-4-4-2-2-2-2-|---------
d|-2-2-0-0-0-0-0-0-0-0-2-2-|-2-2-2-2-
a|-2-2-----------------0-0-|-2-2-2-2-
e|-0-0---------------------|-0-0-0-0-

  (e)                 (a)
e|-0-0-----------------0-0-
b|-0-0-----------------2-2-
g|-1-1-4-4-2-2-4-4-2-2-2-2-
d|-2-2-0-0-0-0-0-0-0-0-2-2-
a|-2-2-----------------0-0-
e|-0-0---------------------

Suck My Kiss tab

Red Hot Chili Peppers tabs for Suck my kiss “Suck My Kiss” was released as the third single from Blood Sugar Sex Magik, Red Hot Chili Peppers' fifth studio album, in 1992. The song is a huge fan favorite, but the band seldom performs it live nowadays. The whole band is credited as writers. Frusciante plays the guitar in his usual style. Use these “Suck My Kiss” guitar tabs to master it yourself.

Note the chord stabbing by the whole band that occurs in the second half of each chorus. First chorus has three stabs, second two and the last has only one. Hopefully these Suck my kiss guitar tabs will help you perform them with the same expert accuracy that the Red Hot Chili Peppers master. The music video that accompanied the song was made up of stock footage from the Red Hot Chili Peppers’ documentary “Funky Monks”.

Almost there ...

Sign in to get your own page with links to favourite songs and more. You are just one click away...

Login with Facebook Login with Google