Log in

One click and you are in

Login with Facebook Login with Google

Why sign up and log in

Guitar Tabs Explorer
Red Hot Chili Peppers tabs for Search and destroy

Search And Destroy tab - Red Hot Chili Peppers

Red Hot Chili Peppers tabs for Search and destroy

Guitar tabs with lyrics

Intro solo (Riff 2) tabbed by Clemens Hofreither
<clemens.hofreither@gmx.net>

Search and Destroy-Red Hot Chili Peppers (off of the Beavis and Butthead
experience)

Tabbed by Patrick Christman
I saw a request for this song by a friend so I figured it out pretty quick
(10 minutes) and have a pretty close approximation of how to play it.
However, the Red Hot Chili Peppers have been known to play some pretty
strange chord shapes so experiment with what I have here. As for the outro

solo, I didn't even really bother so maybe later. The intro solo part is
a rough estimation I didn't really put any effort into it.
Intro solo (Riff 2) tabbed by Clemens Hofreither
Although this is an old song, I still enjoy listening to it and
playing it.
As the original tab only gave a rough outline of the intro solo (riff 2),
I tried to figure it out myself; I think that I have reached quite an
accurate version of it. The only part where I have serious doubts is
the bit reading --7s8h9p8s7--; any corrections are welcome.

I use standard tabbing procedure for the bends feedback and such.


Riff 1 (intro)
  A chord diagramC#C#                             A chord diagramF#F#         A chord diagramE#E#
  let ring--------|
|--------------------------------2---2--2---0-----------|
|--------------------6--6---6----2---2--2---0-----------|
|--------------------6--6---6----3---3--3---1-----------|
|--------------------6--6---6----4---4--4---2-----------|
|-4------------------4--4---4----4---4--4---2-----------|
|--------------------------------2---2--2---0-----------|

This goes to riff 2 where it's a solo part.

Riff 2 - Intro solo

E-------------------------------------------------------------------------
B----5--7--8--7p5-----5--------5h7--5----7s8h9p8s7-----5---7----5~~~------
G-6----------------6-----6-------------------------------------------6~~~-
D-------------------------------------------------------------------------
A-------------------------------------------------------------------------
E-------------------------------------------------------------------------

E-----------------------------12~----12-15-14p12----12--14--12~~-----------
B-14-14--14-12----12----12-14-----14-------------14---------------14/x\x/x\
G--------------13----13----------------------------------------------------
D--------------------------------------------------------------------------
A--------------------------------------------------------------------------
E--------------------------------------------------------------------------
                                                                  feedback

Rythem Guitar
     A chord diagramC#5C#5             A chord diagramA5A5
     P.M.------------------------|
|------------------------------------------------------2--2--2--0-------|
|---------------------------------------6--6---6--6----2--2--2--0-------|
|----6--6--6---6----2--2--2--2--2-------6--6---6--6----3--3--3--1-------|
|----6--6--6---6----2--2--2--2--2-------6--6---6--6----4--4--4--2-------|
|----4--4--4---4----0--0--0--0--0-------4--4---4--4----4--4--4--2-------|
|------------------------------------------------------2--2--2--0-------|


Riff 3 (W/ rythem guitar in backround)

|--9---7----9----12---9----14---14p12p9---9----14----12----------------|
|----------------------------------------------------------------------|
|----------------------------------------------------------------------|
|----------------------------------------------------------------------|
|----------------------------------------------------------------------|
|----------------------------------------------------------------------|


Verse Riff(timing is off cause I wanted to make more space)
    A chord diagramC#C#             A chord diagramA augmentedA              A chord diagramC#C#         A chord diagramF#F#       A chord diagramE MajorE
    P.M.-----|   P.M.------|
|--------------------------------------------2--2--2--0------------------|
|---6-6--6-6---6---2-2--2-2---2---6--6--6----2--2--2--0------------------|
|---6-6--6-6---6---2-2--2-2---2---6--6--6----3--3--3--1------------------|
|---6-6--6-6---6---2-2--2-2---2---6--6--6----4--4--4--2------------------|
|---4-4--4-4---4---0-0--0-0---0---4--4--4----4--4--4--2------------------|
|--------------------------------------------2--2--2--0------------------|


Chorus Riff(Right chords wrong pattern maybe... experiment)
   A chord diagramC#C#          A chord diagramBB          A chord diagramA augmentedA             A chord diagramBB
|-------------------------------------------------------------------------|
|--6---6--6----4---4--4---2--2--2--2----4--4------------------------------|
|--6---6--6----4---4--4---2--2--2--2----4--4------------------------------|
|--6---6--6----4---4--4---2--2--2--2----4--4------------------------------|
|--4---4--4----2---2--2---0--0--0--0----2--2------------------------------|
|-------------------------------------------------------------------------|


Part After Chorus (Is it a Bridge ...I can't tell)
   A chord diagramF5F5   A chord diagramF#5F#5          A chord diagramF5F5   A chord diagramF#5F#5                     A chord diagramA5A5
|--------------------------------------------------------------------------|
|--------------------------------------------------------------------------|
|--------------------------------------------------------------------------|
|--3-/--4--4--4--4----3/--4--4-------------------7--7--7--7---7--7---------|
|--3-/--4--4--4--4----3/--4--4---------2---4--/--7--7--7--7---7--7---------|
|--1-/--2--2--2--2----1/--2--2--2---4------------5--5--5--5---5--5--5---7--|

           A chord diagramE5E5                            A chord diagramG#5G#5
|---------------------------------------------------------------|
|---------------------------------------------------------------|
|---------------------------------------------------------------|
|----------2-2--2-2--2-2-----------------6-6--6-6--6-6----------|
|-5---7----2-2--2-2--2-2--------0---2----6-6--6-6--6-6----------|
|----------0-0--0-0--0-0--0--2-----------4-4--4-4--4-4----------|


All the notes are correct but I got lazy at the end so find you're own
rythem with it.......

Also If I ever get around to tabbing them out look for "Poetry and Prose"
and "I hate Myself and Want To Die" also from that album.

Almost there ...

Sign in to get your own page with links to favourite songs and more. You are just one click away...

Login with Facebook Login with Google