Log in

One click and you are in

Login with Facebook Login with Google

Why sign up and log in

Guitar Tabs Explorer
Red Hot Chili Peppers bass tabs for Parallel universe

Parallel Universe bass tab - Red Hot Chili Peppers

Red Hot Chili Peppers bass tabs for Parallel universe

Bass tabs

Album: Californication
Tabbed by Runar B. Maeland (runar@india.com)
Bass-tab

Update to my old file. This one contains the outtro, and I have written it
so you can play it even if you don't have it on cd.
/=slide
Intro
G -----------------------------------------------------------------
D ---------------------------------0-0-0-0-1-1-1-1---------5-3-1-0-
A -3-3-3-3-3-3-3-3-1-1-1-1-1-1-1-1---------------------------------
E -------------------------------------------------3-3-3-3---------


Verse
G -------------------------------------------------------------------
D ---------------------------------0-0-0-0-1-1-1-1---------5-3-1-0-3-
A -3-3-3-3-3-3-3-3-1-1-1-1-1-1-1-1-----------------------------------
E -------------------------------------------------3-3-3-3-----------
Repeat intro


Chorus, play once on each note
G ------------------------
D ------------------------
A -3------/6--6-----------
E ----3-4--------3-3--3-3-
Repeat

Repeat verse, one variation:
G --------- instead of G ---------
D -----1-0-      D -5-3-1-0-
A ---------      A ---------
E -2-2-----      E ---------

Chorus


Bridge, play four times on each note
G ---------
D --------- Eight times
A -3-------
E ---3-4-1-

Repeat verse

Outtro:
G -----------------------------------------------------------------
D ---------------------------------0-0-0-0-1-1-1-1---------5-3-1-0-
A -3-3-3-3-3-3-3-3-1-1-1-1-1-1-1-1---------------------------------
E -------------------------------------------------3-3-3-3---------


G -----------------------------------------------------------------
D ---------------------------------0-0-0-0-1-1-1-1---------5-3-1-0-
A -3-3-3-3-3-3-3'5-1-1-1-1-1-1-1-1---------------------------------
E -------------------------------------------------3-3-3-3---------

G -----------------------------------------------------------------
D ---------------------------------0-0-0-0-1-1-1-1---------5-3-1-0-
A -3-3-3-3-3-3-1---1-1-1-1-1-1-1-1---------------------------------
E ---------------3---------------------------------3-3-3-3---------

G -----------------------------------------------------------------
D ---------------------------------0-0-0-0-1-1-1-1---------5-3-1-0-
A -3-3-3-3-3-3-3'5-1-1-1-1-1-1-1-1---------------------------------
E -------------------------------------------------3-3-3-3---------

00:10 28.12.2001 in Stord, Norway

Almost there ...

Sign in to get your own page with links to favourite songs and more. You are just one click away...

Login with Facebook Login with Google