Log in

One click and you are in

Login with Facebook Login with Google

Why sign up and log in

Guitar Tabs Explorer
Red Hot Chili Peppers chords for On mercury

Guitar chords

Album: By the way

Heard this song on their website a while ago got
album yesterday this is one of my favourite.
Chords are basic for verses really an f shape.
INTRO/VERSES :
    A chord diagramBB        A chord diagramG+G         A chord diagramA augmentedA         A chord diagramA augmentedA  A chord diagramFF  A chord diagramG+G  A chord diagramFF
e|--2-x-x-2-----------------------------------------
b|--3-x-x-3--3-x-x-3---5-x-x-5---5--2--3--2---------
g|--4-x-x-4--4-x-x-4---6-x-x-6---6--3--4--3---------
d|-----------5-x-x-5---7-x-x-7---7--4--5--4---------
a|--------------------------------------------------
A chord diagramE MajorE|--------------------------------------------------


PRE-CHORUS :
e|---3-3-3-3-3-3-3----2-2-2-2-2-2-2----------------
b|---3-3-3-3-3-3-3----2-2-2-2-2-2-2----------------
g|---4-4-4-4-4-4-4----3-3-3-3-3-3-3------REPEAT----
d|---5-5-5-5-5-5-5----4-4-4-4-4-4-4----------------
a|---5-5-5-5-5-5-5----4-4-4-4-4-4-4----------------
A chord diagramE MajorE|---3-3-3-3-3-3-3----2-2-2-2-2-2-2----------------


CHORUS :
    A chord diagramBB         A chord diagramD MajorD        D/C#       A chord diagramA augmentedA
e|--------------------------------------------------
b|--------------------------------------------------
g|--4-4-4-4---7-7-7-7--7-7-7-7----------------------
d|--4-4-4-4---7-7-7-7--7-7-7-7---7-7-7-7------------
a|--2-2-2-2---5-5-5-5--4-4-4-4---7-7-7-7------------
A chord diagramE MajorE|-------------------------------5-5-5-5-----------

Thats all the parts done and its pretty acurate too.
Comments corrections to my email please^

Almost there ...

Sign in to get your own page with links to favourite songs and more. You are just one click away...

Login with Facebook Login with Google