Log in

One click and you are in

Login with Facebook Login with Google

Why sign up and log in

Guitar Tabs Explorer
Red Hot Chili Peppers tabs for My friends

Guitar tabs

My friends - Red Hot Chili Peppers
Intro + verse


E----------|----0----------0--------0---------------------------------------=

B----------|----3----------3--------3---------------------------------------=

G----------|--2-2------0h2-2--------0----------0-0h2-0----------------------=

D---(3)~5 3|0------0-3--------3---0---------0h2--------2--------------------=

A----------|--------------------2-----2-2h3---------------------------------=

E----------|----------------------------------------------------------------=


E---------------0----------0--------0--0-0----------------(0)---------------=

B---------------3----------3--------3--3-3-----------------3----------------=

G-------------2-2------0h2-2--------0--0-0-----------------2----------------=

D---------- 0------0-3--------3---0----0-0-----------------0----------------=

A-------------------------------2------2-2---2-X-X--0-X-X-------------------=

E--------------------------------------------3-X-X--1-X-X-------------------=


Chorus :
    A chord diagramC majorC   A chord diagramA augmentedA           A chord diagramD MajorD   A chord diagramA augmentedA
E---0---0------0--------0--0------------------------------------------------=

B---1---2------1--------3--2------------------------------------------------=

G---0---2------0--------0--2------------------------------------------------=

D---2---2----2-------------2------------------------------------------------=

A---3---0--3------3-3~5----0------------------------------------------------=

E---------------------------------------------------------------------------=




Bridge :

  A chord diagramE MajorE     A chord diagramG+G     A chord diagramF#F#      A chord diagramFF    A chord diagramC majorC    A chord diagramBB    p.m----------------->to verse
E-0-----3------2------1----0----2-------------------------------------------=

B-0-----3------2------1----1----4-------------------------------------------=

G-1-----4------3------2----0----4-------------------------------------------=

D-2-----5------4------3----2----4----3-------------(7)----------------------=

A-2-----5------4------3----3----2----3-------------(7)----------------------=

E-0-----3------2------1--------------1-------------(5)----------------------=


chords solo guitar:

E--2---0--3-----------------------------------------------------------------=
B--3---3--3-----------------------------------------------------------------=
G--2---0--0-----------------------------------------------------------------=
D--0---2--0-----------------------------------------------------------------=
A------3--2-----------------------------------------------------------------=
E---------3-----------------------------------------------------------------=

Other versions of My Friends

My friendsChords
My friends two guitarsTabs

Almost there ...

Sign in to get your own page with links to favourite songs and more. You are just one click away...

Login with Facebook Login with Google