Log in

One click and you are in

Login with Facebook Login with Google

Why sign up and log in

Guitar Tabs Explorer
Red Hot Chili Peppers tabs for Easily

Guitar tabs with lyrics

Here is the tab for the Red Hot Chili Peppers' Easily;
which can be found on their album: "Californication."
You should listen to the CD to learn the rhythm as well as
the cues for verse and chorus.

Symbols:
	15^17 - bend from 15 to 17
	15/13 - slide down from 15 to 17
	13\15 - slide up from 13 to 15

Here are the chords:
Intro and Verse Chord Progression:
	A chord diagramA minorAm      A chord diagramDmDm       Fmaj      A chord diagramA minorAm   x4


Chorus:
In the next part the guitarist plays the
following chords in double-time.

Cmaj		A chord diagramB minorBm		Cmaj  x2

Amin		Gmaj		Amin  x2


Now just repeat the verse chords.


Solo:

e:12------10--12\15-12-10----------------------
B:--------------------------13--15^17-12-13----
G:---------------------------------------------
D:---------------------------------------------
A:---------------------------------------------
E:---------------------------------------------

e:------------------------12-12---------
B:--13---12-13-15^17/13---------15-12-13
G:--------------------------------------
D:--------------------------------------
A:--------------------------------------
E:--------------------------------------



Outro: There are two guitars playing but I only know the tab to one.

Guitar 1:
e:15-13-12-13-12-------12------15-13-12-13-12-------12----
B:---------------13-12----13------------------13-12----13-

e:-17-15----15--------15-----17-15----15--------15---
B:-------17----17--15----17--------17----17--15----17
This repeats over and over again.


I hope you enjoy these tabs, good luck with the song.

-Paul M.

Other versions of Easily

Easily liveTabs

Almost there ...

Sign in to get your own page with links to favourite songs and more. You are just one click away...

Login with Facebook Login with Google