Log in

One click and you are in

Login with Facebook Login with Google

Why sign up and log in

Guitar Tabs Explorer
Red Hot Chili Peppers tabs for Dani california

Guitar tabs

Intro
     A chord diagramA minorAm      A chord diagramG+G     A chord diagramDmDm     A chord diagramA minorAm
e-----0|-----3|-----1|-----0|
B-----1|-----3|-----3|-----1|
G-----2|-----0|-----2|-----2|
D-----2|-----0|-0-0-0|-----2|
A-0-0-0|-----2|-----0|-0-0-0|
E-----0|-3-3-3|-----0|-----0|
x 8
This the last one before the Chorus
     A chord diagramA minorAm      A chord diagramG+G     A chord diagramDmDm play for 8 beats
e-----0|-----3|-1-----|
B-----1|-----3|-3-----|
G-----2|-----0|-2-----|
D-----2|-----0|-0-----|
A-0-0-0|-----2|-0-----|
E-----0|-3-3-3|-0-----|
Chorus
A chord diagramFF 3 beats  A chord diagramC majorC 1 beat A chord diagramDmDm 3 beats  A chord diagramG+G 1 beat
e-1------|-0------|-1---------|-3------|
B-1------|-1------|-3---------|-3------|
G-2------|-0------|-2---------|-0------|
D-3------|-2------|-0---------|-0------|
A-3------|-3------|-0---------|-2------|
E-1------|-0------|-0---------|-3------|
x 3
A chord diagramFF 3 beats  A chord diagramC majorC 1 beat A chord diagramDmDm 8 beats
e-1------|-0------|-1-----|
B-1------|-1------|-3-----|
G-2------|-0------|-2-----|
D-3------|-2------|-0-----|
A-3------|-3------|-0-----|
E-1------|-0------|-0-----|

Who knew part
A chord diagramB minorBm 4 beats     A chord diagramG+G 2 beats   A chord diagramB minorBm 2 beats
e-2----------|-3---------|-2----------|
B-3----------|-3---------|-3----------|
G-4----------|-0---------|-4----------|
D-4----------|-0---------|-4----------|
A-2----------|-2---------|-2----------|
E-2----------|-3---------|-2----------|
x3
One more like this
A chord diagramB minorBm 8 beats
e-2----------|
B-3----------|
G-4----------|
D-4----------|
A-2----------|
E-2----------|

Then
     A chord diagramA minorAm      A chord diagramG+G     A chord diagramDmDm     A chord diagramA minorAm
e-----0|-----3|-----1|-----0|
B-----1|-----3|-----3|-----1|
G-----2|-----0|-----2|-----2|
D-----2|-----0|-0-0-0|-----2|
A-0-0-0|-----2|-----0|-0-0-0|
E-----0|-3-3-3|-----0|-----0|
x3
  A chord diagramA minorAm          A chord diagramG+G   A chord diagramDmDm 8 beats  A chord diagramE MajorE 8 beats
e-----0-|-----3-|-1---------|-0--------|
B-----1-|-----3-|-3---------|-0--------|
G-----2-|-----0-|-2---------|-1--------|
D-----2-|-----0-|-0---------|-2--------|
A-0-0-0-|-----2-|-0---------|-2--------|
E-----0-|-3-3-3-|-0---------|-0--------|

Outro
A chord diagramFF 3 beats  A chord diagramC majorC 1 beat A chord diagramDmDm 3 beats  A chord diagramG+G 1 beat
e-1------|-0------|-1---------|-3------|
B-1------|-1------|-3---------|-3------|
G-2------|-0------|-2---------|-0------|
D-3------|-2------|-0---------|-0------|
A-3------|-3------|-0---------|-2------|
E-1------|-0------|-0---------|-3------|
x 3
A chord diagramFF 3 beats  A chord diagramC majorC 1 beat A chord diagramDmDm 8 beats
e-1------|-0------|-1-----|
B-1------|-1------|-3-----|
G-2------|-0------|-2-----|
D-3------|-2------|-0-----|
A-3------|-3------|-0-----|
E-1------|-0------|-0-----|
do all of this 3 times

than the last part is like this

A chord diagramFF 3 beats  A chord diagramC majorC 1 beat A chord diagramDmDm 3 beats  A chord diagramG+G 1 beat
e-1------|-0------|-1---------|-3------|
B-1------|-1------|-3---------|-3------|
G-2------|-0------|-2---------|-0------|
D-3------|-2------|-0---------|-0------|
A-3------|-3------|-0---------|-2------|
E-1------|-0------|-0---------|-3------|
x 3

Than You do this
A chord diagramFF 4 beats
e-1-------|
B-1-------|
G-2-------|
D-3-------|
A-3-------|
E-1-------|
Than you shred the last A chord diagramFF and end the song.

Other versions of Dani California

Dani CaliforniaChords
Dani California (Ver. 2)Tabs
Dani California - introTabs

Almost there ...

Sign in to get your own page with links to favourite songs and more. You are just one click away...

Login with Facebook Login with Google