Log in

One click and you are in

Login with Facebook Login with Google

Why sign up and log in

Guitar Tabs Explorer
Red Hot Chili Peppers bass tabs for Black summer

Black Summer bass tab by Red Hot Chili Peppers

Red Hot Chili Peppers bass tabs for Black summer

Bass tabs

Intro:

G|--------------15---------------------------------|--------15----------------------15---------------|
D|--13~---------------13~--------------------------|--------------13----13----------------13~--------|
A|-------------------------------------------------|-------------------------------------------------|
E|-------------------------------------------------|-------------------------------------------------|
  1 + + + 2 + + + 3 + + + 4 + + +  1 + + + 2 + + + 3 + + + 4 + + +

G|--------------15---------------------------------|--------------------15---------------------------|
D|--13----13----------13~--------------------------|--------13----13----------------13----13---------|
A|-------------------------------------------------|--------------------------------------------13---|
E|-------------------------------------------------|-------------------------------------------------|
  1 + + + 2 + + + 3 + + + 4 + + +  1 + + + 2 + + + 3 + + + 4 + + +



Verse 1: "A lazy rain "
G|--------------------11h13p11---------------------|-------------------------------------------------|
D|--13~---------------------------13----11---------|--------------------------------------------13---|
A|--------------------------------------------13---|--9~----------------9~----------9----/13---------|
E|-------------------------------------------------|-------------------------------------------------|
  1 + + + 2 + + + 3 + + + 4 + + +  1 + + + 2 + + + 3 + + + 4 + + +

G|-------------------------------------------------|--------------------10h11p10---------------------|
D|--11~---------11----11.--------------------------|--13~---------------------------11----------11---|
A|--------------------------------11----11.--------|--------------------------------------13---------|
E|-------------------------------------------------|-------------------------------------------------|
  1 + + + 2 + + + 3 + + + 4 + + +  1 + + + 2 + + + 3 + + + 4 + + +

G|-------------------------------------------------|--------------------------------------10.--------|
D|--------------------------------------16-p--15---|--13~---------------13----------13---------------|
A|--11~---------------13.---------14---------------|-------------------------------------------------|
E|-------------------------------------------------|-------------------------------------------------|
  1 + + + 2 + + + 3 + + + 4 + + +  1 + + + 2 + + + 3 + + + 4 + + +

G|--11~--------------/15----------13----11-h--13---|-------------------------------------------------|
D|-------------------------------------------------|--11~---------11----11~---------11----11\--------|
A|-------------------------------------------------|-------------------------------------------------|
E|-------------------------------------------------|-------------------------------------------------|
  1 + + + 2 + + + 3 + + + 4 + + +  1 + + + 2 + + + 3 + + + 4 + + +

G|---------------------------------|---------------------------------|
D|---------------------------------|---------------------------------|
A|-6~---------h6-------4-----------|-----------------------------6---|
E|-------------------------6---4---|-2~----------2~------2--/6-------|
  1 + + + 2 + + + 3 + + + 4 + + +  1 + + + 2 + + + 3 + + + 4 + + +

G|---------------------------------|---------------------------------|
D|---------------------------------|---------------------------------|
A|-4~------4.----------------------|-6~----------6.------6---4-------|
E|-----------------4~------4.------|-----------------------------6---|
  1 + + + 2 + + + 3 + + + 4 + + +  1 + + + 2 + + + 3 + + + 4 + + +

G|---------------------------------|---------------------------------|
D|-----------------------------4---|---------------------------------|
A|-------------4.------6.----------|-6~------6---6-------6---8.------|
E|-4---6---7-----------------------|---------------------------------|
  1 + + + 2 + + + 3 + + + 4 + + +  1 + + + 2 + + + 3 + + + 4 + + +

G|---------------------------------|---------------------------------|
D|-------------------------11\-----|---------------------------------|
A|-9~---------/13~-----------------|-4~----------4~------4---4.------|
E|---------------------------------|---------------------------------|
  1 + + + 2 + + + 3 + + + 4 + + +  1 + + + 2 + + + 3 + + + 4 + + +

G|---------------------------------|-13--13.-----15------15--15.-----|
D|---------------------------------|-11--11.-----13------13--13.-----|
A|-2~------2.----------------------|---------------------------------|
E|-----------------2~------2.------|---------------------------------|
  1 + + + 2 + + + 3 + + + 4 + + +  1 + + + 2 + + + 3 + + + 4 + + +

G|---------------------------------|---------------------------------|
D|---------------------------------|---------------------------------|
A|---------------------------------|-6---6.------6~------6---6.------| (This Eb is actually played an octave
E|-2~------2.------4~------4.------|---------------------------------|         lower)
  1 + + + 2 + + + 3 + + + 4 + + +  1 + + + 2 + + + 3 + + + 4 + + +

Verse 2: "Platypus are a few "
G|---------------------------------|---------------------------------|
D|-------------4h6p4---------------|---------------------------------|
A|-6~------------------6---4-------|-----------------------------6---|
E|-----------------------------6---|-2~----------2~------2--/6-------|
  1 + + + 2 + + + 3 + + + 4 + + +  1 + + + 2 + + + 3 + + + 4 + + +

G|---------------------------------|---------------------------------|
D|---------------------------------|---------------------------------|
A|-4~------4---4.------------------|-6---6.------6.------4.----------|
E|---------------------4---4.------|-----------------------------6.--|
  1 + + + 2 + + + 3 + + + 4 + + +  1 + + + 2 + + + 3 + + + 4 + + +

G|---------------------------------|---------------------------------|
D|---------------------4.----------|---------------------------------|
A|-------------4.--------------4---|-6~------6---6.------6---8.------|
E|-4---6---7-----------------------|---------------------------------|
  1 + + + 2 + + + 3 + + + 4 + + +  1 + + + 2 + + + 3 + + + 4 + + +

G|---------------------------------|---------------------------------|
D|---------------6h8-----6h8\------|---------------------------------|
A|-9~------------------------------|-4~----------4~----------4---5---|
E|---------------------------------|---------------------6-----------|
  1 + + + 2 + + + 3 + + + 4 + + +  1 + + + 2 + + + 3 + + + 4 + + +

G|---------------------------------|---------------------------------|
D|---------------------------------|---------------------------------|
A|-6~----------4~------------------|-----------------------------6---|
E|---------------------6---4---\---|-2-----------2~------2--/6-------|
  1 + + + 2 + + + 3 + + + 4 + + +  1 + + + 2 + + + 3 + + + 4 + + +

G|---------------------------------|-----------------3---------------|
D|---------------------------------|-----3---4---6-------6---4-------|
A|-4~------4.----------------------|-6---------------------------6---|
E|-----------------4~------4.------|---------------------------------|
  1 + + + 2 + + + 3 + + + 4 + + +  1 + + + 2 + + + 3 + + + 4 + + +

G|---------------------------------|---------------------------------|
D|---------------------------------|-------------------------3~------|
A|-----------------------------4---|-6~----------6~------6-----------|
E|-4~----------6.------7.----------|---------------------------------|
  1 + + + 2 + + + 3 + + + 4 + + +  1 + + + 2 + + + 3 + + + 4 + + +

G|---------------------------------|---------------------------------|-----8---8---8~------8---8-------|
D|-4~------4---4~------4---4/------|-5---5---5---5---5---5---5---5---|-5---------------------------8\--|
A|---------------------------------|---------------------------------|---------------------------------|
E|---------------------------------|---------------------------------|---------------------------------|
  1 + + + 2 + + + 3 + + + 4 + + +  1 + + + 2 + + + 3 + + + 4 + + +  1 + + + 2 + + + 3 + + + 4 + + +


Chorus 1: "It's been a long time "
G|---------------------------------|---------------------------------|
D|-----1---4-----------------------|-----3---6-----------------------|
A|-2-------------------1---4-------|-4-----------6~------6---6/------|
E|-------------0---2-----------2---|---------------------------------|
  1 + + + 2 + + + 3 + + + 4 + + +  1 + + + 2 + + + 3 + + + 4 + + +

G|---------------------------------|---------------------------------|
D|-----8---11----------10--13------|---------------------------------|
A|-9-----------9---11----------11--|---------------------------------|
E|---------------------------------|-11--11.-----11~-----11--11\-----|
  1 + + + 2 + + + 3 + + + 4 + + +  1 + + + 2 + + + 3 + + + 4 + + +

G|---------------------------------|---------------------------------|
D|-----1---4-----------------------|-----3---6-----------------------|
A|-2-------------------1---4-------|-4-----------6~------6---6.------|
E|-------------0---2-----------2---|---------------------------------|
  1 + + + 2 + + + 3 + + + 4 + + +  1 + + + 2 + + + 3 + + + 4 + + +

G|---------------------------------|---------------------------------|
D|---------------------------------|---------------------------------|
A|-4~------4.----------------------|-6---6.------6~------------------|(Eb played an octave Lower)
E|-----------------4~------4.------|---------------------------------|
  1 + + + 2 + + + 3 + + + 4 + + +  1 + + + 2 + + + 3 + + + 4 + + +

The solo we've been waiting for so long :
G|---------------------------------|---------------------------------|
D|---------------------------------|---------------------------------|
A|-6~------6---6---4-6-4-----4-----|-----------------------------6---|
E|-------------------------4---6---|-2~----------2~------2--/6-------|
  1 + + + 2 + + + 3 + + + 4 + + +  1 + + + 2 + + + 3 + + + 4 + + +

G|---------------------------------|---------------------------------|
D|---------------------------------|-----------------6-4-----4-------|
A|-4~------4-------.---------------|-6~------6~----------6-----6-4---|
E|---------------------4---4~------|---------------------------------|
  1 + + + 2 + + + 3 + + + 4 + + +  1 + + + 2 + + + 3 + + + 4 + + +

G|---------------------------------|---------------------------------|
D|-----------------------------4---|-------------------------3.------|
A|---------------------4---6-------|-6~------6---6~------6-----------|
E|-4~----------7.------------------|---------------------------------|
  1 + + + 2 + + + 3 + + + 4 + + +  1 + + + 2 + + + 3 + + + 4 + + +

G|---------------------6-----------|---------6---6~------------------|
D|-4~------4---4--/8-------8---4---|-----6---------------6-----------|
A|---------------------------------|-4-----------------------4/------|
E|---------------------------------|---------------------------------|
  1 + + + 2 + + + 3 + + + 4 + + +  1 + + + 2 + + + 3 + + + 4 + + +

G|---------------------------------|---------------------------------|
D|-------------4~------------------|-------------4~------------------|
A|-6~----6-4h6---------6~--4-------|---------4-----------4-----------|
E|---------------------------6-4---|-2~----------------------2---4---|
  1 + + + 2 + + + 3 + + + 4 + + +  1 + + + 2 + + + 3 + + + 4 + + +

G|---------------------------------|---------------------------------|
D|---------------------------------|---------------------------------|
A|-4~------4---4---4---------------|-6---6---4---6~------6---4-------|
E|---------------------4---4---4---|-----------------------------6---|
  1 + + + 2 + + + 3 + + + 4 + + +  1 + + + 2 + + + 3 + + + 4 + + +

G|---------------------------------|---------------------------------|
D|-----------------------------4---|-------------------------3.------|
A|---------------------4.----------|-6~------6---6-------6-----------|
E|-4---6.------7.------------------|---------------------------------|
  1 + + + 2 + + + 3 + + + 4 + + +  1 + + + 2 + + + 3 + + + 4 + + +

G|---------------------------------|---------------------------------|
D|-4---4---4---4---4---4---4---4---|-4---4---4---4---4---4---4---4---|
A|---------------------------------|---------------------------------|
E|---------------------------------|---------------------------------|
  1 + + + 2 + + + 3 + + + 4 + + +  1 + + + 2 + + + 3 + + + 4 + + +

G|-8---8---8---8---8---8---8---8---|-8---8---8---8---8---8---8---8---|
D|-5---5---5---5---5---5---5---5---|-5---5---5---5---5---5---5---5---|
A|---------------------------------|---------------------------------|
E|---------------------------------|---------------------------------|
  1 + + + 2 + + + 3 + + + 4 + + +  1 + + + 2 + + + 3 + + + 4 + + +


Verse 3: "Crack the flaming whip "
*Rest*


Chorus 2: "Been a long time "
G|---------------------------------|---------------------------------|
D|-----1---4-----------------------|-----3---6-----------------------|
A|-2-------------------1---4.------|-4-----------6~------6---6/------|
E|-------------0---2---------------|---------------------------------|
  1 + + + 2 + + + 3 + + + 4 + + +  1 + + + 2 + + + 3 + + + 4 + + +

G|---------------------------------|---------------------------------|
D|-----8---11----------10--13------|---------------------------------|
A|-9-----------9---11----------11--|---------------------------------|
E|---------------------------------|-11--11.-----11~-----11--11\-----|
  1 + + + 2 + + + 3 + + + 4 + + +  1 + + + 2 + + + 3 + + + 4 + + +

G|---------------------------------|---------------------------------|
D|-----1---4-----------------------|-----3---6-----------------------|
A|-2-------------------1---4-------|-4-----------6~------6---6.------|
E|-------------0---2-----------2---|---------------------------------|
  1 + + + 2 + + + 3 + + + 4 + + +  1 + + + 2 + + + 3 + + + 4 + + +

G|---------------------------------|---------------------------------|
D|---------------------------------|---------------------------------|
A|-4---4---4.----------------------|-6---6.------6~------6---6---6---| (Eb played an octave lower)
E|-----------------4---4---4~------|---------------------------------|
  1 + + + 2 + + + 3 + + + 4 + + +  1 + + + 2 + + + 3 + + + 4 + + +


Outro:
G|---------------------------------|---------------------------------|
D|-----------------4---4-----------|---------------------------------|
A|-----6---6---6-----------6-------|-------------4~------4-----------|
E|-----------------------------6\--|-2~------2---------------2/------|
  1 + + + 2 + + + 3 + + + 4 + + +  1 + + + 2 + + + 3 + + + 4 + + +

G|---------------------------------|---------------------------------|
D|-----6---6---6---3---3-----------|-------------4~------4-----------|
A|-4-----------------------4---4---|-6~------6---------------6\------|
E|---------------------------------|---------------------------------|
  1 + + + 2 + + + 3 + + + 4 + + +  1 + + + 2 + + + 3 + + + 4 + + +

G|---------------------------------|---------------------------------|
D|---------------------------------|-------------4~------4-----------|
A|---------------------------------|/6~------6---------------6---.---|
E|-----4---4---4---7---7---4---4---|---------------------------------|
  1 + + + 2 + + + 3 + + + 4 + + +  1 + + + 2 + + + 3 + + + 4 + + +

G|-----6---6---6-------------------|---------------------------------|
D|-----------------8---8-----------|-----6---6-6h8---6---------------|
A|-------------------------9---9---|---------------------8---4~------|
E|---------------------------------|---------------------------------|
  1 + + + 2 + + + 3 + + + 4 + + +  1 + + + 2 + + + 3 + + + 4 + + +

G|---------------------------------|---------------------------------|
D|-----------------4---4-----------|---------------------------------|
A|-----6---6---6-----------6-------|-------------4~------4-----------|
E|-----------------------------6\--|-2---2---2---------------2/------|
  1 + + + 2 + + + 3 + + + 4 + + +  1 + + + 2 + + + 3 + + + 4 + + +

G|---------------------------------|---------------------------------|
D|-----6---6---6---3---3-----------|-------------4~------4-----------|
A|-4-----------------------4---4---|-6~------6---------------6\------|
E|---------------------------------|---------------------------------|
  1 + + + 2 + + + 3 + + + 4 + + +  1 + + + 2 + + + 3 + + + 4 + + +

G|---------------------------------|---------------------------------|
D|---------------------------------|-------------4~------4-----------|
A|---------------------------------|/6~------6---------------6---.---|
E|-----4---4---4---7---7---4---4---|---------------------------------|
  1 + + + 2 + + + 3 + + + 4 + + +  1 + + + 2 + + + 3 + + + 4 + + +

G|-----6---6---6-------------------|-----6---6-6h8---6---------------|
D|-----------------8---8-----------|---------------------8-----------|
A|-------------------------9---9---|-------------------------9-------|
E|---------------------------------|---------------------------------|
  1 + + + 2 + + + 3 + + + 4 + + +  1 + + + 2 + + + 3 + + + 4 + + +

G|---------------------------------|---------------------------------|
D|-----6---6-6h8---6-----------6~--|-----6---6-6h8---6---------------|
A|---------------------9---6-------|---------------------9---6~------|
E|---------------------------------|---------------------------------|
  1 + + + 2 + + + 3 + + + 4 + + +  1 + + + 2 + + + 3 + + + 4 + + +

G|---------------------------------|---------------------------------|
D|---------------------------------|---------------------------------|
A|-6~--------------6~--------------|---------------------------------| (First Eb played an octave lower)
E|---------------------------------|---------------------------------|
  1 + + + 2 + + + 3 + + + 4 + + +  1 + + + 2 + + + 3 + + + 4 + + +
ⓘ Bass guitar tab for 'Black Summer' by Red Hot Chili Peppers, an alternative rock band formed in 1983 from Los Angeles, California, USA. Red Hot Chili Peppers is known for their moody rock/pop music.

Almost there ...

Sign in to get your own page with links to favourite songs and more. You are just one click away...

Login with Facebook Login with Google