Log in

One click and you are in

Login with Facebook Login with Google

Why sign up and log in

Guitar Tabs Explorer
Red Hot Chili Peppers tabs for Apache rose peacock

Apache Rose Peacock tab - Red Hot Chili Peppers

Red Hot Chili Peppers tabs for Apache rose peacock

Guitar tabs with lyrics

hi! this is apache rose peacock of red hot chili peppers. can be useful? i hope.
gbbuora@interlandsrl.it

The Red hot chili peppers is one of my favourite band
I hope that this transcription is useful.
I'm working on the bass part. Write to me!!

Rhythm figure 1

E-------------X--------X-X-----7/9--|----------X-----------------|
B-------------X--------X-X-----7/9--|----------X-----------------|
G-----7---7---X--7---7-X-X-7---7/9--|---7---7--X--7p0--6----7----|
D-----------------------------------|----------------------------|
A-----------------------------------|----------------------------|
E-----------------------------------|----------------------------|
E-------------X--------X-X-----7/9--|----------X-----12-12-------|
B-------------X--------X-X-----7/9--|----------X-----12-12-10---8|
G-----7---7---X--7---7-X-X-7---7/9--|---7---7--X--7--12-12-11---9|
D-----------------------------------|----------------------------|
A-----------------------------------|----------------------------|
E-----------------------------------|----------------------------|

Rhythm figure 2

E13-13--13---13---13-13--13-13--X-13-|-15-15-X-15--X-15--15-15-15-15--X-15-|
B15-15--15---15---15-15--15-15--X-15-|-14-14-X-14--X-14--14-14-14-14--X-14-|
G17-17--17---17---17-17--17-17--X-17-|-14-14-X-14--X-14--14-14-14-14--X-14-|
D------------------------------------|-14-14-X-14--X-14--14-14-14-14--X-14-|
A------------------------------------|-------------------------------------|
E------------------------------------|-------------------------------------|

Rhythm figure 3

E-15------15------15---15---X--X---14-|-15---15---15--15----15---15--15-|
B-14------14------14---14---X--X---13-|-14---14---14--14----14---14--14-|
G-14------14------14---14---X--X---13-|-14---14---14--14----14---14--14-|
D-14------14------14---14---X--X---13-|-14---14---14--14----14---14--14-|
A-------------------------------------|---------------------------------|
E-------------------------------------|---------------------------------|

Rhythm figure 4

E---7-----7--------7-----7---|-----------------------------|
B---8-----8--------8-----8---|----7------------------------|
G---9-----9--------9-----9---|----7------------------------|
D----------------------------|----7------------------------|
A----------------------------|-----------------------------|
E----------------------------|-----------------------------|

E-----------------------------------|---------------------------------|
B---0--0--0--0--3-----0--0--0--0--3-|-0--0--0--0--3-----0--0--0--0--3-|
G---2--2--2--2--2-----2--2--2--2--2-|-2--2--2--2--2-----2--2--2--2--2-|
D---1--1--1--1--2-----1--1--1--1--2-|-1--1--1--1--2-----1--1--1--1--2-|
A---2--2--2--2--2-----2--2--2--2--2-|-2--2--2--2--2-----2--2--2--2--2-|
E-----------------------------------|---------------------------------|

Rhythm figure 5

E---------------------|---------------------|
G---------------------|---------------------|
B---------------------|---------------------|
D---------------------|---------------------|
A-------------------2-|---------------------|
E--0----0--0---3------|--0-----0-----5---3--|

(with rhithm figure 1)
Sittin'on a sack of beans, ...
(with rhithm figure 2)
Yes my favorite place to be is ....
(with rhithm figure 3)
Oh good brother, just when I throught ....
(with rhythm figure 2)
Yes, my favorite place to be. It's not a land ....
(with rhythm figure 4)
(Do do do do do,)
Ba da bom,
(do do do do do do)
bom bom bom bomnomn n monomn oh yeah
(Do do do do do,)
Ba da bom,
(do do do do do do)
bom bom bom bomnomn n monomn oh yeah

.

Almost there ...

Sign in to get your own page with links to favourite songs and more. You are just one click away...

Login with Facebook Login with Google