Log in

One click and you are in

Login with Facebook Login with Google

Why sign up and log in

Guitar Tabs Explorer
Rebelution tabs for Nightcrawler

Guitar tabs

e)------------------------------------------|
b)---------------0----------------------5---|
g)-----------5----------------------4-------|
d)-------2----------------------2-----------|
a)---0----------------------0---------------|
A chord diagramE MajorE)------------------------------------------|

rest of song
e)---5-5---5-5---|
b)---5-5---6-6---|
g)---5-5---7-7---|
d)---7-7---7-7---|
a)---7-7---5-5---|
A chord diagramE MajorE)---5-5---------|


organ solo
e)------------------------------------|
b)---10-------------------------------|
g)--------9--10--7--9---7-777---------|
d)-----------------------------10-7---|
a)------------------------------------|
A chord diagramE MajorE)------------------------------------|

Almost there ...

Sign in to get your own page with links to favourite songs and more. You are just one click away...

Login with Facebook Login with Google