Log in

One click and you are in

Login with Facebook Login with Google

Why sign up and log in

Guitar Tabs Explorer
Ravyn Lenae guitar tabs for Sticky

Guitar tabs

Tuning: Standard (E A D G B E)

Keys: (Start at 0:00)

e|--------------------------------|----------------------------------|
B|--------------------------------|----------------------------------|
G|-4------------------------------|-4---------------5----------------|
D|-------------------------7------|----------------------------------|
A|--------------------------------|-6---------------5----------------|
E|-5-----------------------7------|----------------------------------| X2

Guitar: (0:16 - 0:32)

e|--------------------------------|----------------------------------|
B|--------------------------------|----------------------------------|
G|--------------------------------|----------------------------------|
D|-------7---7---7---7---7---9----|-9-------9-------9--------9-------|
A|-------7---7---7---7---7---9----|-6-------6-------5--------5-------|
E|-------5---5---5---5---5---7----|----------------------------------| X2

Guitar: (Start at 0:32)

e|--------------------------------|----------------------------------|
B|--------------------------------|----------------------------------|
G|-----------------------12--14---|-16------16------16-------16------|
D|-------14--12--14--16--12--14---|-14------14------14-------14------|
A|-------14--12--14--15-----------|-14------14------14-------14------|
E|--------------------------------|----------------------------------|

e|--------------------------------|----------------------------------|
B|--------------------------------|----------------------------------|
G|-----------------------12--14---|-16------16------16-------16------|
D|-------14--12--14--16--12--14---|-14------14------14-------14-16-17|
A|-------14--12--14--15-----------|-14------14------14-------14------|
E|--------------------------------|----------------------------------|

Bass: (Start at 0:32) (Credit to holdupforwhat who first tabbed the bass)

G|-------2-----2------------------|---------------------------------|
D|--------------------------------|-2-2------2-------0-0-----12-----|
A|-0-0------0-------0-0----2-2----|-------2-----2-------------------|
E|--------------------------------|---------------------------------|

G|-------2----0h2-----------------|-------9----9-8---7--------------|
D|--------------------------------|----------------------7----------|
A|-0-0------0-------0-0----2-2----|-7-7------7----------------5~----|
E|--------------------------------|---------------------------------|

OOHS: (first heard at 0:53)

e|--------------------------------|---------------------------------|
B|--------------------------------|---------------------------------|
G|--------------------------------|-------------12-11----9-7--------|
D|--------------------------------|----------7-9-----5-7--------10-9|
A|--------------------------------|--------------------------5-7----|
E|--------------------------------|---------------------------------|

Keys: (first heard at 0:56)

e|--------------------------------|---------------------------------|
B|-------8-7--------------8-7-----|---------------------------------|
G|-9-7-9-----9------9-7-9-----9-7-|---------------------------------|
D|------------------------------9-|---------------------------------|
A|--------------------------------|---------------------------------|
E|--------------------------------|---------------------------------|


************************************

| h  Hammer-on
| ~  Vibrato

************************************

Other versions of Sticky

StickyChords

Almost there ...

Sign in to get your own page with links to favourite songs and more. You are just one click away...

Login with Facebook Login with Google