Log in

One click and you are in

Login with Facebook Login with Google

Why sign up and log in

Guitar Tabs Explorer
The Rapture bass tabs for Pieces of the people we love

Pieces Of The People We Love bass tab by The Rapture

The Rapture bass tabs for Pieces of the people we love

Bass tabs

Tuning: Standard (E A D G)

Key: E

G|-------------------------------------------------------------------------|
D|------------4--2--2--2-2-2--2--2--2--2-2-2--2/4--4--4-4-4--4-------------|
A|-4--4--4-4-----------------------------------------------------4--4--4-4-|
E|-------------------------------------------------------------------------|

G|---------------------------------------------------|
D|-4--2--2--2-2-2--2--2--2--2-2-2--2/4--4--4-4-4--4--| (Repeat as needed!)
A|---------------------------------------------------|
E|---------------------------------------------------|

Alternative version:

G|----------------------------------------------------------------------------------|
D|----------------------------------------------------------------------------------| (Repeat as needed!)
A|-4---4--4-4/9--7---7---7-7-7--7---7---7---7-7-7--7---9---9---9-9-9--9-------------|
E|----------------------------------------------------------------------------------|


************************************

| / Slide up

************************************

Almost there ...

Sign in to get your own page with links to favourite songs and more. You are just one click away...

Login with Facebook Login with Google