Log in

One click and you are in

Login with Facebook Login with Google

Why sign up and log in

Guitar Tabs Explorer
The Rapture tabs for Echoes

Guitar tabs with lyrics

-------------------------------------------------------------------------------
			     Echoes - The Rapture
-------------------------------------------------------------------------------

Intro:        |--x11--|
e|-6--5--4----xx-xx-xx--xx-xx-x----|
b|-7--6--5----xx-xx-xx--xx-xx-x----|
g|-8--5--6----66-88-66--66-88-6----|
d|-8--7--6----xx-xx-xx--xx-xx-x----|
a|-x--x--4-------------------------|
e|-x--x--4-------------------------|

e|----------------------|
b|----------------------|
g|----------------------|
d|----------------------|
a|----------------------|
e|-6-6-6--6-6-6--6-6-6--|


Main Riff throughout the song
(try and stum up for most notes)

                 v
e|---------------6-------------------|
b|---------------6-------------------|
g|---------------6-------------------|
d|-----------------------------------|
a|-----------------------------------|
e|-6-6-62/6-6-6------6-6-62/6------|
  |-------x4-------|

The city breathing,
The people churning,
The conversating,
The price is what?
         v                v
e|-------6----------------6------------------|
b|-------6----------------6------------------|
g|-------6----------------6------------------|
d|-------------------------------------------|
a|-------------------------------------------|
e|-6-6-6----6-6-62/6-6-6------6-6-62/6-----| (X2)
           |-------x3-------|

  |---------x7---------|
e|-xx-xx-x-x--xx-xx-x-x--xx-xx-x-x--xx-xx-x--|
b|-xx-xx-x-6--xx-xx-x-x--xx-xx-x-6--xx-xx-x--|
g|-66-88-6-x--66-88-6-8--66-88-6-x--66-88-6--|
d|-xx-xx-x-x--xx-xx-x-x--xx-xx-x-x--xx-xx-x--|
a|-------------------------------------------|
e|-------------------------------------------|

e|---------------|
b|---------------|
g|---------------|
d|---------------|
a|---------------|
e|-6-6-6--6-6-6--| (X4)

The conversating
This place is heaven
I put on lipstick
The price is what?

         v                v
e|-------6----------------6------------------|
b|-------6----------------6------------------|
g|-------6----------------6------------------|
d|-------------------------------------------|
a|-------------------------------------------|
e|-6-6-6----6-6-62/6-6-6------6-6-62/6-----|
           |-------x3-------|

   v  v   v
e|-6--5---4-----|
b|-7--6---5-----|
g|-8--5---6-----|
d|---(7)-(6)----|
a|--------------|
e|--------------| (X2)

Life makes echoes
If you see them
Life makes echoes

         v                v
e|-------6----------------6------------------|
b|-------6----------------6------------------|
g|-------6----------------6------------------|
d|-------------------------------------------|
a|-------------------------------------------|
e|-6-6-6----6-6-62/6-6-6------6-6-62/6-----|
           |-------x3-------|

The End Part isn't very clear so it's not really definite what Luke does...
i find it's easier to just play one string notes
while barring all the other notes to get a really trashy yet well made
sound kind of like Luke. just try it out i'm sure it'll sound decent:]
e.g.
e|--xx--|Come together
b|--46--|Come together
g|--xx--|Come together
d|--xx--|Come together
a|--xx--|Come together
e|--xx--|Come together


commets or suggestions appreciated....

---------------------
v =   strum down
/ =   slide up
 =   slide down
x =   muted string
---------------------

Echoes tab

The Rapture tabs for Echoes 'Echoes' is the title track off of The Rapture's debut album, released in 2003.

Almost there ...

Sign in to get your own page with links to favourite songs and more. You are just one click away...

Login with Facebook Login with Google