Log in

One click and you are in

Login with Facebook Login with Google

Why sign up and log in

Guitar Tabs Explorer
Ranglin Ernest tabs for Surfin

Tabs with lyrics

Album: Rebirth of the cool 6
Tabbed by Frederic Briere


h - hammer on
p - pull off
b - bend string up
r - release bend
/ - slides
~ - vibrato
t - right hand tap
x - play 'note' with heavy damping

This is quite a complicated song. So the tabbing is probably incorrect at
some places, especially the first piano pass, which I'm not really sure I
got correct, but I think it is mostly accurate. It's difficult to play, so
don't care too much about the details; try to make it sound as it does.
Bass main riff

E----------------------------------------------------------
B----------------------------------------------------------
G----------------------------------------------------------
D-----5--------3-5----------------3-5----------------------
A---3------3-6----------5-----3-6--------------------------
E---------------------3------------------------------------


0:14

E----------------------------------------------------------
B----------------------------------------------------------
G--/17~----------------------------------------------------
D--/17~--------/17~------15--/17-/17-/17-/17-/15-13--------
A--------15-18-----15-18----------------------------15-15~-
E----------------------------------------------------------
E----------------------------------------------------------
B----------------------------------------------------------
G---/17~---------------------------------------------------
D---/17~--------15/17--------15-/17-/17-15/16/15----/15----
A---------15-18--------15-18--------------------18---------
E----------------------------------------------------------

E----------------------------------------------------------
B--------------16/~----------------------------------------
G---------------------17-17-17--17-17-17-16----------------
D-------------------------------------------15----/15------
A---18-15~-------------------------------------18-----18---
E----------------------------------------------------------

E----------------------------------------------------------
B-----------------7/6--------------------------------------
G---------12----------8-5-8~--7/10/-9/---------------------
D------------15~--------------8/11/10/-15-15---------------
A---15~--------------------------------------18-15~--------
E----------------------------------------------------------


0:42 (piano pass)

E----------------------------------------------------------
B----------------------------------------------------------
G---17~---12-15-13-15p13p12-10-12p10p8-7-8p7p5-------------
D----------------------------------------------------------
A----------------------------------------------------------
E----------------------------------------------------------

E-------13-----------16-18-16-15---------------------------
B-----13---16-13-13--------------18-16-13----------15-13---
G---13------------------------------------15-12-15---------
D----------------------------------------------------------
A----------------------------------------------------------
E----------------------------------------------------------

E-----------------------------------13-15------------------
B-----------------------------------------16-12------------
G---12----------12/13----13-12--------------------13-------
D------15-13-15--------------------------------------15-13-
A----------------------------------------------------------
E----------------------------------------------------------

E----------------------------------------------------------
B----------------------------------------------------------
G------12--------------------------------------------------
D---15----13-----------------------------------------------
A------------15-13-15~-------------------------------------
E----------------------------------------------------------


0:55 (guitar)

Repeat twice

E----------------------------------------------------------
B------/16-/16---------------------------------------------
G---17---------17-------/17-/17----------------------------
D-----------------17-17---------17--------15-/17-/17-------
A-----------------------------------15-18------------------
E----------------------------------------------------------

E----------------------------------------------------------
B----------------------------------------------------------
G----------------------------------------------------------
D----15/16/15----/15---------------------------------------
A-------------18-----18-15~--------------------------------
E----------------------------------------------------------


1:09 (piano)

E------12/19-18-18--18-17-16-15h16p15h16p15h16p15-15-------
B----------------------------------------------------18-16-
G----------------------------------------------------------
D----------------------------------------------------------
A---3------------------------------------------------------
E----------------------------------------------------------

E----------------------------------------------------------
B---15-----------------------------------------------------
G------17-16--------------------------------17-------17----
D------------18-17-15-17-15--------------17-------17-------
A---------------------------18-17-15--18-------18----------
E----------------------------------------------------------

E----------------------------------------------------------
B-----------------------------------------------20---------
G-------------17-------17-17-15----------------------------
D------17-----------17----------18-17h18p17p15-------------
A---18-----------18----------------------------------------
E----------------------------------------------------------

E----------------------------------------------------------
B----------------18--------------15------------------------
G----------------------------------------------------------
D---17h18p17p15------17h18p17p15----17h18p17p15----15------
A-----------------------------------------------18----18---
E----------------------------------------------------------

E----------------------------------------------------------
B----------------------------------------------------------
G----------------------------------------------------------
D----------------------------------------------------------
A---15----15~----------------------------------------------
E------18--------------------------------------------------


1:23 (guitar)


E---8-11-8----11-------11-8--------------------------------
B----------11-------11------11-8----8-11p8--------------8--
G--------------------------------10--------10-8----8-10----
D-----------------------------------------------10---------
A----------------------------------------------------------
E----------------------------------------------------------

E----------------------------------------------------------
B---11p8---------------------------------------------------
G--------10p8----8-----------------------------------------
D-------------10---10p8----8-------------------------------
A-----------------------10---10p8p6-8p6--------------------
E---------------------------------------8-8---///////8-----

E-----------------------------------------------------8----
B-------------------------------------8-9p8----8-9-11------
G----------------8p7----8-10p8--10-10-------10-------------
D---7-8-8-9-10-------10------------------------------------
A----------------------------------------------------------
E----------------------------------------------------------

E---11p8---------8-11-//////20-18-15-13-15---13------------
B--------11-8-11--------------------------------16p13---13-
G----------------------------------------------------15----
D----------------------------------------------------------
A----------------------------------------------------------
E----------------------------------------------------------

Then Piano pass, not really playable with a guitar

1:50 (guitar)


E----------------------------------------------------------
B----------------------------------------------------------
G---/17-/17-15---------------------------------------------
D--------------15/17/15----15-------------------/15-/15----
A-----------------------18----18-15-18~---15-18------------
E----------------------------------------------------------

E----------------------------------------------------------
B----------------------------------------------------------
G----------------------20-x-20-x-20-xx-19-xx-17-xx-17-15---
D---/15-13-/15-13------------------------------------------
A-----------------15~--------------------------------------
E----------------------------------------------------------

E----------------------------------------------------------
B----------------------------------------------------------
G----------------------------------------------------------
D---18-17-------3-5-3-------------3-----3-5---3-5-6-3-5-6--
A---------------------6-5-4-3-5-6---5-6-----6--------------
E----------------------------------------------------------


E----------------------------------------------------------
B----------------------------------------------------------
G---3-----3-5--/////17~------------------------------------
D-----5-6-----------17~------------------------------------
A----------------------------------------------------------
E----------------------------------------------------------


Then piano pass

2:16 (guitar)


E----------------------------------------------------------
B----------------------------------------------------------
G--/17~----------------------------------------------------
D--/17~--------/17~------15--/17-/17-/17-/17-/15-13--------
A--------15-18-----15-18----------------------------15-15~-
E----------------------------------------------------------

E----------------------------------------------------------
B----------------------------------------------------------
G---/17~---------------------------------------------------
D---/17~--------/17--------15-/17-/17-/17------------------
A---------15-18------15-18----------------15-15-18-17-15~--
E----------------------------------------------------------

E----------------------------------------------------------
B----------------------------------------------------------
G---/17~---------------------------------------------------
D---/17~-------15/17-------15-/17-/17-15/16/15---/15-------
A--------15-18-------15-18--------------------18-----18-15-
E----------------------------------------------------------


E----------------------------------------------------------
B---/20~---------------------------------------------------
G----------------------------------------------------------
D---------15-13-15-13-13-12--------------------------------
A---------------------------15-----------/17-15~-----------
E------------------------------/19-16-15-------------------

E---20-20-20---20-20-20---20-20-20---20-20-20---20-20-20---
B----------------------------------------------------------
G----------------------------------------------------------
D----------------------------------------------------------
A----------------------------------------------------------
E----------------------------------------------------------

E-------------------18p16------------------------16-18p16--
B---20-18----20-----------20-18-16-18-20---18-20-----------
G---------20-----------------------------------------------
D----------------------------------------------------------
A----------------------------------------------------------
E----------------------------------------------------------

E----------------------------------------------------------
B---20-18-16-----------------------------------------------
G------------18-17-15--------------------------------------
D---------------------18-17-15-----------------------------
A------------------------------18-17-15--18-18-x-15-20~----
E----------------------------------------------------------

E----------------------------------------------------------
B----------------------------------------------------------
G----------------------------------------------------------
D---18-18-x-15-19~--15-17-15-17p15-------------------------
A----------------------------------18-17-15----------------
E-------------------------------------------18-17-15-------


2:58


E--------------20-20---------------------------------------
B----------------------------------------------------------
G---------------------17-17-17-15--------------------------
D---------------------------------18-17-15----15-17---17---
A------------------------------------------18--------------
E--/////8~-------------------------------------------------

E----------------------------------------------------------
B----------------------------------------------------------
G----------------------------------------------------------
D---15-----------------------------------------------------
A------18-17-15-17-18-17-15-14-----------------------------
E------------------------------16-15-13--/11-10-8~---------

E----------------------------------------------------------
B----------------------------------------------------------
G----------------------------------------------------------
D----------------------------------------------------------
A---15-14-15-17-18-17-18-17-15----/18~---------------------
E------------------------------15--------15/13-13-13-15-----

E----------------------------------------------------------
B----------------------------------------------------------
G----------------------------------------------------------
D----------------/17~---------------------15-/17-17-15-13--
A---14-15-/17-15-----------15-14-15-17-18------------------
E-----------------------15---------------------------------

E----------------------------------------------------------
B----------------------------------------------------------
G----------------------------------------------------------
D----------------------------------------------------------
A---15-14----14-/17-15~------------------------------------
E---------15-----------------------------------------------


3:25 (piano)


E----------------------------------------------------------
B----------------------------------------------------------
G---17-16-12----15-14-10----13-12-11-10-9-/8-7-5-4-1-------
D----------------------------------------------------------
A----------------------------------------------------------
E----------------------------------------------------------

E----------------------------------------------------------
B----------------------------------------------------------
G--------------------4-7-4---4-4-2-------------------------
D---3------------3-5-------5-------5-4-3---5-4-4h5-4-3-----
A-----6-3-6~-----------------------------------------------
E----------------------------------------------------------

E----------------------------------------------------------
B----------------------------------------------------------
G----------------------------------------------------------
D---0h1-0--------------------------------------------------
A---------3~-----------------------------------------------
E----------------------------------------------------------

Then repeat first rhythm...

That's it!
ⓘ Guitar tab for 'Surfin' by, formed in 2000

Almost there ...

Sign in to get your own page with links to favourite songs and more. You are just one click away...

Login with Facebook Login with Google