Log in

One click and you are in

Login with Facebook Login with Google

Why sign up and log in

Guitar Tabs Explorer
Rancid bass tabs for Motorcycle ride

Bass tabs

Rancid: Motorcycle Ride


280 bpm !

Intro:
  C5        C        C5   C5    Bb5 Bb5 Bb5 Bb5
 G|----------------|----------------|----------------|----------------|
 D|----------------|----------------|----------------|----------------|
 A|3---------------|3---------------|3-------2-------|1---0---1---3---|
 E|----------------|----------------|----------------|----------------|

  F5      F5        C5        C5        F5
 G|----------------|----------------|----------------|----------------|
 D|----------------|----------------|----------------|----------------|
 A|----------------|--------1-0-1-3-|--3-3---3-3-3-3-|----3-3-1-0-1---|
 E|1---1-1-1-1-1-1-|----1-1---------|----------------|--------------1-|

  F5      F5        C5        C5        Bb5
 G|----------------|----------------|----------------|----------------|
 D|----------------|----------------|----------------|----------------|
 A|----------------|--------1-0-1-3-|--3-3---3-3-3-3-|----3-3-3-3-2-1-|
 E|----1-1-1-1-1-1-|----1-1---------|----------------|----------------|

  Bb5      Bb5       C5        C5        Bb5
 G|----------------|----------------|----------------|----------------|
 D|----------------|----------------|----------------|----------------|
 A|----1-1-1-1-0-1-|----1-1-1-1-2-3-|--3-3---3-3-3-3-|--3-3-3-3-3-2-1-|
 E|----------------|----------------|----------------|----------------|

  Bb5      Bb5
 G|----------------|----------------|
 D|----------------|----------------|
 A|----1-1-1-1-0-1-|----1-1-1-1-2---|
 E|----------------|----------------|

  C5        C        C5   C5    Bb5   Bb5
 G|----------------|----------------|----------------|----------------|
 D|----------------|----------------|----------------|----------------|
 A|3---------------|3---------------|3-------2-------|1---0---1---3---|
 E|----------------|----------------|----------------|----------------|


Verse:
  F5        C5        Bb5       F5
 G|----------------|----------------|----------------|----------------|
 D|----------------|----------------|----------------|----------------|
 A|----------------|3---3-3-3-3-2---|1---1-1-1-1-3---|----------------|
 E|1---1-1-1-1-3---|----------------|----------------|1---1-1-1-1-0---|

  F5        C5        Bb5       F5
 G|----------------|----------------|----------------|----------------|
 D|----------------|----------------|----0-0-1-1-2-2-|3-3-1-1-0-0-----|
 A|----------------|3---3-3-3-3-2---|1---------------|------------3-3-|
 E|1---1-0-1-1-3---|----------------|----------------|----------------|


Chorus:
  Bb5
 G|----------------|----------------|----------------|----------------|
 D|----------------|----------------|----------------|----------------|
 A|1-1-1-1-1-1-1-1-|1-1-1-1-1-1-1-1-|1-1-1-1-1-1-1-1-|1-1-1-1-1-1-2---|
 E|----------------|----------------|----------------|----------------|

  C5        C        C5   C5    Bb5 Bb5 Bb5 Bb5
 G|----------------|----------------|----------------|----------------|
 D|----------------|----------------|----------------|----------------|
 A|3---------------|3---------------|3-------2-------|1---0---1---3---|
 E|----------------|----------------|----------------|----------------|


Solo:
  F5      F5        C5        C5        F5
 G|----------------|----------------|----------------|----------------|
 D|----------------|----------------|----------------|----------------|
 A|----------------|--------1-0-1-3-|--3-3---3-3-3-3-|----3-3-1-0-1---|
 E|1---1-1-1-1-1-1-|----1-1---------|----------------|--------------1-|

  F5      F5        C5        C5        Bb5
 G|----------------|----------------|----------------|----------------|
 D|----------------|----------------|----------------|----------------|
 A|----------------|--------1-0-1-3-|--3-3---3-3-3-3-|----3-3-3-3-2-1-|
 E|----1-1-1-1-1-1-|----1-1---------|----------------|----------------|

  Bb5      Bb5       C5        C5        Bb5
 G|----------------|----------------|----------------|----------------|
 D|----------------|----------------|----------------|----------------|
 A|----1-1-1-1-0-1-|----1-1-1-1-2-3-|--3-3---3-3-3-3-|--3-3-3-3-3-2-1-|
 E|----------------|----------------|----------------|----------------|

  Bb5      Bb5
 G|----------------|----------------|
 D|----------------|----------------|
 A|----1-1-1-1-0-1-|----1-1-1-1-2---|
 E|----------------|----------------|

  C5        C        C5   C5    Bb5 Bb5 Bb5 Bb5 F5
 G|----------------|----------------|----------------|----------------|
 D|----------------|----------------|----------------|----------------|
 A|3---------------|3---------------|3-------2-------|1---0---1---3---|
 E|----------------|----------------|----------------|----------------|1

Almost there ...

Sign in to get your own page with links to favourite songs and more. You are just one click away...

Login with Facebook Login with Google