Log in

One click and you are in

Login with Facebook Login with Google

Why sign up and log in

Guitar Tabs Explorer
Rancid bass tabs for Journey to the end of the east bay

Journey To The End Of The East Bay bass tab by Rancid

Rancid bass tabs for Journey to the end of the east bay

Bass tabs

-=-=-=-=-=- JOURNEY TO THE END OF THE EAST BAY -=-=-=-=-=-
     by Rancid from the album "...and out come the wolves"
        Tabbed by Dave Miller (dwm3@po.cwru.edu)

-=-=-=-=-=-=-=-=-=-=-=-=-=-=-=-=-=-=-=-=-=-=-=-=-=-=-=-=-=-=-=-=-=-=-=-=-=-=-=-
   This is an incredible song. No one lays done a great bass line like
  Matt Freeman. Normal tuning...

  Basic Outline:
   - Intro - A, B, C, B
   - Verse (4X)
   - Chorus (4X)
   - after the second chorus, a variation of Intro (B) is played twice

-=-=-=-=-=-=-=-=-=-=-=-=-=-=-=-=-=-=-=-=-=-=-=-=-=-=-=-=-=-=-=-=-=-=-=-=-=-=-=-

 Intro (A)

||---------------------4-----4-------------6--9--6------------------------------
||*-----2--3--4--5--5-----5-----5--5/7--7-----------7---------------------------
||*--3--------------------------------------------------------------------------
||------------------------------------------------------------------------------


||------------------------------------------------------------------------------
||*--3-----------------2--3--4--5--5---/5--5---/5--5---/5--5--------------------
||*--------0--1--2--3-----------------------------------------------------------
||------1-----------------------------------------------------------------------


||------------------------------------------------------------------------------
||*--3-----------------2p0------------------------------------------------------
||*--------0--1--3--3-------2p0-------------------------------------------------
||------1------------------------3p0--------------------------------------------

 (B)

||---------------------4-----4-------------6--9--6------------------------------
||*-----2--3--4--5--5-----5-----5--5/7--7-----------7---------------------------
||*--3--------------------------------------------------------------------------
||------------------------------------------------------------------------------


||------------------------------------------------------------------------------
||*--3-----------------2--3--4--5--5---/5--5---/5--5---/5--5--------------------
||*--------0--1--2--3-----------------------------------------------------------
||------1-----------------------------------------------------------------------


||------------------------------------------------------------------------------
||*--3--3--3--3--1--1--1--1--0--0--0--0-----------------------------------------
||*--------------------------------------3--0--1--2-----------------------------
||------------------------------------------------------------------------------


 (C)

||---------------------4-----4-------------6--9--6------------------------------
||*-----2--3--4--5--5-----5-----5--5/7--7-----------7---------------------------
||*--3--------------------------------------------------------------------------
||------------------------------------------------------------------------------


||------------------------------------------------------------------------------
||*--3-----------------2--3--4--5--5---/5--5---/5--5---/5--5--------------------
||*--------0--1--2--3-----------------------------------------------------------
||------1-----------------------------------------------------------------------


||-----------------------------0------------------------------------------------
||*--3-----------------2p0--2-----2--0------------------------------------------
||*--------0--1--3--3-----------------------------------------------------------
||------1-----------------------------------------------------------------------


 (B)

||---------------------4-----4-------------6--9--6------------------------------
||*-----2--3--4--5--5-----5-----5--5/7--7-----------7---------------------------
||*--3--------------------------------------------------------------------------
||------------------------------------------------------------------------------


||------------------------------------------------------------------------------
||*--3-----------------2--3--4--5--5---/5--5---/5--5---/5--5--------------------
||*--------0--1--2--3-----------------------------------------------------------
||------1-----------------------------------------------------------------------


||------------------------------------------------------------------------------
||*--3--3--3--3--1--1--1--1--0--0--0--0-----------------------------------------
||*--------------------------------------3--0--1--2-----------------------------
||------------------------------------------------------------------------------


 Verse

||------------------------------------------------------------------------------
||*-----------------------------------------------------------------------------
||*--3--3--3--3--3--3--3--3-----------------------------------------------------
||---------------------------3--3--3--3--3--3--3--3--5--5--5--5--5--5--5--5-----

  Reconcile to the belief...

------------------------
------------------------
------------------------
1--1--1--1--1--1--1--1--


 Chorus

||------------------------------------------------------
||*------5--7-------------------------------------------
||*---3--------8----------------------------------------
||------------------------------------------------------

  To the end, to the end, I'll journey to the end...

Almost there ...

Sign in to get your own page with links to favourite songs and more. You are just one click away...

Login with Facebook Login with Google