Log in

One click and you are in

Login with Facebook Login with Google

Why sign up and log in

Guitar Tabs Explorer
The Ramones bass tabs for Touring

Bass tabs

------------------------------------------------------------------------------
            Touring - The Ramones
------------------------------------------------------------------------------

Tabbed by: ChrisT

From the Album: The Chrysalis Years (2002)
Tuning: Standard


Intro
G|-----------------------------------|
D|o---------------------------------o|
A|o--2h3--3-3--3-3--2h3--3-3--3-3---o|
E|-----------------------------------|


Verse
G|----------------------------------------------------------------------|
D|----------------------------------------------------------------------|
A|---3---------------3---------------3---------------3------------------|
E|----------------------------------------------------------------------|

G|----------------------------------------------------------------------|
D|----------------------------------------------------------------------|
A|-----------------------------------3-3-3-3-3-3-3-3-3-3-3-3-3-3-3-3----|
E|---1-1-1-1-1-1-1-1-1-1-1-1-1-1-1-1------------------------------------|

The kids......
G|----------------------------------------------------------------------|
D|----------------------------------------------------------------------|
A|----------------------------------------------------------------------|
E|---5-5-5-5-5-5-5-5-1-1-1-1-1-1-1-1-5-5-5-5-5-5-5-5-1-1-1-1-1-1-1-1----|

G|-------------------------------------|
D|-------------------------------------|
A|-------------------------------------|
E|---5-5-5-5-5-5-5-5-1-1-1-1-1-1-1-1---|

G|----------------------------------------------------------------------|
D|----------------------------------------------------------------------|
A|----------------------------------------------------------------------|
E|---3-3-3-3-3-3-3-3-3-3-3-3-3-3-3-3-3-3-3-3-3-3-3-3-3-3-3-3-3-3-3-3----|

Rock n roll....
G|--------------------------------------------------------------------|
D|--------------------------------------------------------------------|
A|---3-3-3-3-3-3-3-3-3-3-3-3-3-3-3-3-2h3--3-3--3-3--2h3--3-3--3-3-----|
E|--------------------------------------------------------------------|

G|--------------------------------------------------------------------|
D|--------------------------------------------------------------------|
A|-----------------------------------2h3--3-3--3-3--2h3--3-3--3-3-----|
E|---1-1-1-1-1-1-1-1-1-1-1-1-1-1-1-1----------------------------------|

We’ve got a.....
G|----------------------------------------------------------------------|
D|----------------------------------------------------------------------|
A|----------------------------------------------------------------------|
E|---5-5-5-5-5-5-5-5-1-1-1-1-1-1-1-1-5-5-5-5-5-5-5-5-1-1-1-1-1-1-1-1----|

G|----------------------------------------------------------------------|
D|----------------------------------------------------------------------|
A|---3-3-3-3-------------------------3-3-3-3----------------------------|
E|-----------5-5-5-5-1-1-1-1-3-3-3-3---------5-5-5-5--1-1-1-1-3-3-3-3---|

G|-----------------------------------|
D|-----------------------------------|
A|---2h3--3-3--3-3--2h3--3-3--3-3----|
E|-----------------------------------|

Chorus
G|-----------------------------------------------------------------------|
D|o---------------------------------------------------------------------o|
A|o----------------------------------3-3-3-3-3-3-3-3-3-3-3-3-3-3-3-3----o|
E|---3-3-3-3-3-3-3-3-3-3-3-3-3-3-3-3-------------------------------------|

G|-----------------------------------------------------------------------|
D|-----------------------------------------------------------------------|
A|-----------------------------------3-3-3-3-3-3-3-3---------------------|
E|---1-1-1-1-1-1-1-1-1-1-1-1-1-1-1-1-----------------5-5-5-5-5-5-5-5-----|

G|--------------------------------------|
D|--------------------------------------|
A|---3-3-3-3----------------------------|
E|-----------5-5-5-5-1-1-1-1-3-3-3-3----|

G|-----------------------------------|
D|o---------------------------------o|
A|o--2h3--3-3--3-3--2h3--3-3--3-3---o|
E|-----------------------------------|


Verse
G|----------------------------------------------------------------------|
D|----------------------------------------------------------------------|
A|---3-3-3-3-3-3-3-3-3-3-3-3-3-3-3-3-3-3-3-3-3-3-3-3-3-3-3-3-3-3-3-3----|
E|----------------------------------------------------------------------|

G|----------------------------------------------------------------------|
D|----------------------------------------------------------------------|
A|-----------------------------------3-3-3-3-3-3-3-3-3-3-3-3-3-3-3-3----|
E|---1-1-1-1-1-1-1-1-1-1-1-1-1-1-1-1------------------------------------|

American girls...
G|----------------------------------------------------------------------|
D|----------------------------------------------------------------------|
A|----------------------------------------------------------------------|
E|---5-5-5-5-5-5-5-5-1-1-1-1-1-1-1-1-5-5-5-5-5-5-5-5-1-1-1-1-1-1-1-1----|

G|-------------------------------------|
D|-------------------------------------|
A|-------------------------------------|
E|---5-5-5-5-5-5-5-5-1-1-1-1-1-1-1-1---|

G|----------------------------------------------------------------------|
D|----------------------------------------------------------------------|
A|----------------------------------------------------------------------|
E|---3-3-3-3-3-3-3-3-3-3-3-3-3-3-3-3-3-3-3-3-3-3-3-3-3-3-3-3-3-3-3-3----|

Let’s go....
G|----------------------------------------------------------------------|
D|----------------------------------------------------------------------|
A|---3-3-3-3-3-3-3-3-3-3-3-3-3-3-3-3------------------------------------|
E|-----------------------------------3-3-3-3-3-3-3-3-3-3-3-3-3-3-3-3----|

G|----------------------------------------------------------------------|
D|----------------------------------------------------------------------|
A|---3-3-3-3-3-3-3-3-3-3-3-3-3-3-3-3------------------------------------|
E|-----------------------------------3-3-3-3-3-3-3-3-3-3-3-3-3-3-3-3----|

G|----------------------------------------------------------------------|
D|----------------------------------------------------------------------|
A|----------------------------------------------------------------------|
E|---1-1-1-1-1-1-1-1-3-3-3-3-3-3-3-3-1-1-1-1-1-1-1-1-3-3-3-3-3-3-3-3----|

G|----------------------------------------------------------------------|
D|----------------------------------------------------------------------|
A|----------------------------------------------------------------------|
E|---3-3-3-3-3-3-3-3-3-3-3-3-3-3-3-3-3-3-3-3-3-3-3-3-3-3-3-3-3-3-3-3----|

Drive, drive....
G|----------------------------------------------------------------------|
D|----------------------------------------------------------------------|
A|----------------------------------------------------------------------|
E|---1-1-1-1-1-1-1-1-1-1-1-1-1-1-1-1-3-3-3-3-3-3-3-3-3-3-3-3-3-3-3-3----|

G|------------------------------------------------------------------|
D|------------------------------------------------------------------|
A|------------------------------------------------------------------|
E|---1-1-1-1-1-1-1-1-1-1-1-1-1-1-1-1-3--1-3--1-3--3--1-3--1-3-------|


Chorus
G|-----------------------------------------------------------------------|
D|o---------------------------------------------------------------------o|
A|o----------------------------------3-3-3-3-3-3-3-3-3-3-3-3-3-3-3-3----o|
E|---3-3-3-3-3-3-3-3-3-3-3-3-3-3-3-3-------------------------------------|

G|-----------------------------------------------------------------------|
D|-----------------------------------------------------------------------|
A|-----------------------------------3-3-3-3-3-3-3-3---------------------|
E|---1-1-1-1-1-1-1-1-1-1-1-1-1-1-1-1-----------------5-5-5-5-5-5-5-5-----|

G|-------------------------------------|---------------------------------|
D|o-----------------------------------o|---------------------------------|
A|o--3-3-3-3--------------------------o|---3~----------------------------|
E|-----------5-5-5-5-1-1-1-1-3-3-3-3---|---------------------------------|

Almost there ...

Sign in to get your own page with links to favourite songs and more. You are just one click away...

Login with Facebook Login with Google