Log in

One click and you are in

Login with Facebook Login with Google

Why sign up and log in

Guitar Tabs Explorer
The Ramones tabs for Sheena is a punk rocker

Intro

Tuning: standart


Intro:
e---------------------------------------------------------------------
B---------------------------------------------------------------------
G---------------------------------------------------------------------
D-9/10-10-10-10-10-9/10-10-10-10-10-9/10-10-10-10-10-9/10-10-10-10-10-
A-9/10-10-10-10-10-9/10-10-10-10-10-9/10-10-10-10-10-9/10-10-10-10-10-
E-7/8--8--8--8--8--7/8--8--8--8--8--7/8--8--8--8--8--7/8--8--8--8--8--
Verse:
Well the kids are all hopped up and ready to go
e---------------------------------------------------------------
B---------------------------------------------------------------
G---------------------------------------------------------------
D-10-10-10-10-10-10-10-10-10-10-10-10-10-9/10-10-10-10-10-10-10-
A-10-10-10-10-10-10-10-10-10-10-10-10-10-9/10-10-10-10-10-10-10-
E-8--8--8--8--8--8--8--8--8--8--8--8--8--7/8--8--8--8--8--8--8--

They're ready to go now
e-------------------------------
B-------------------------------
G-------------------------------
D-10-10-10-10-10-10-10-10-10-10-
A-10-10-10-10-10-10-10-10-10-10-
E-8--8--8--8--8--8--8--8--8--8--

They've got their surfboards
e-------------------------------
B-------------------------------
G-12-12-12-12-12-12-12-12-12-12-
D-12-12-12-12-12-12-12-12-12-12-
A-10-10-10-10-10-10-10-10-10-10-
E-------------------------------

And they're going to the discotheque a go go
e-----------------------------------------------------------------------
B-----------------------------------------------------------------------
G-12-12-12-12-12-12-12-12-12-12-12--------------------------------------
D-12-12-12-12-12-12-12-12-12-12-12-9-10-10-10-10-10-9/10-10-10-10-10-10-
A-10-10-10-10-10-10-10-10-10-10-10-9-10-10-10-10-10-9/10-10-10-10-10-10-
E----------------------------------7/8--8--8--8--8--7/8--8--8--8--8--8--

But she just couldn't stay
e-------------------------
B-------------------------
G-------10-10-10-10-10-10-
D-7-7-7-10-10-10-10-10-10-
A-7-7-7-8--8--8--8--8--8--
E-5-5-5-------------------

She had to break away
e---------------------------------------------
B---------------------------------------------
G-------10-10-10-10-10-10-10------------------
D-7-7-7-10-10-10-10-10-10-10-9/10-10-10-10-10-
A-7-7-7-8--8--8--8--8--8--8--9/10-10-10-10-10-
E-5-5-5----------------------7/8--8--8--8--8--

Well, New York City really has it all
e------------------------------------------
B------------------------------------------
G----------------------------12-12-12------
D-10-10-10-10-10-10-10-10-10-12-12-12------
A-10-10-10-10-10-10-10-10-10-10-10-10------
E-8--8--8--8--8--8--8--8--8----------------

Oh yeah, oh yeah...
e-------------------------------
B-------------------------------
G-12-12-12-12-12-12-12-12-12-12-
D-12-12-12-12-12-12-12-12-12-12-
A-10-10-10-10-10-10-10-10-10-10-
E-------------------------------

Chorus:
Sheena is a punk rocker
e----------------------------
B----------------------------
G----------10-10-12-12-12-12-
D-10-10-10-10-10-12-12-12-12-     2x
A-10-10-10-8--8--8--10-10-10-
E-8--8--8--------------------

Sheena is a punk rocker
now
e-------------------------------------------
B-------------------------------------------
G-------------------10-10-10-10-12-12-12-12-
D-10-10-10-10-10-10-10-10-10-10-12-12-12-12-
A-10-10-10-10-10-10-8--8--8--8--10-10-10-10-
E-8--8--8--8--8--8--------------------------


Bridge:
Well, she's a punk punk, a punk rocker
e----------------------------
B----------------------------
G-10-10-10-10-10-10-10-10-10-
D-10-10-10-10-10-10-10-10-10-
A-8--8--8--8--8--8--8--8--8--
E----------------------------

Punk, punk, a punk rocker
e----------------------------
B----------------------------
G----------------------------
D-10-10-10-10-10-10-10-10-10-
A-10-10-10-10-10-10-10-10-10-
E-8--8--8--8--8--8--8--8--8--

Punk, punk, a punk rocker
e----------------------------
B----------------------------
G-12-12-12-12-12-12-12-12-12-
D-12-12-12-12-12-12-12-12-12-
A-10-10-10-10-10-10-10-10-10-
E----------------------------

Punk, punk, a punk rocker!
e---------------------------
B---------------------------
G---------------------------
D-8-8-8-8-8-8-8-8-8-8-8-8-8-
A-8-8-8-8-8-8-8-8-8-8-8-8-8-
E-6-6-6-6-6-6-6-6-6-6-6-6-6-


************************************

Other versions of Sheena Is A Punk Rocker

Sheena is a punk rockerChords
Sheena is a punk rocker ukuleleChords

Almost there ...

Sign in to get your own page with links to favourite songs and more. You are just one click away...

Login with Facebook Login with Google