Log in

One click and you are in

Login with Facebook Login with Google

Why sign up and log in

Guitar Tabs Explorer
The Ramones tabs for Pinhead

Tabs

this was the first song from the ramones that i learned to play, so i
thought i would put it on here. sooo.....here it is...


Intro/Main Riff:
E------------------------------------
B------------------------------------
G-------------------------9-11-------
D--10--11-11-11-11-11-11--9-11-9-11--
A--10--11-11-11-11-11-11--7-9--9-11--
E--8---9--9--9--9--9--9--------7-9---
Verse:
E------------------------------------
B------------------------------------
G-----------------------------7-9----
D--8---9--9--9--9--9--9--7-9--7-9----
A--8---9--9--9--9--9--9--7-9--5-7----
E--6---7--7--7--7--7--7--5-7---------


Pre Chorus:
E----------------------------
B----------------------------
G----------------------------
D--9-9-9-9-9-9-9-9-9-9-9-9---
A--9-9-9-9-9-9-9-9-9-9-9-9---
E--7-7-7-7-7-7-7-7-7-7-7-7---


Chorus:
E------------------------------------
B------------------------------------
G--------------------9---------------
D--11-11-11-11-11-11-9-9-9-9-9-9-9-6-
A--11-11-11-11-11-11-7-9-9-9-9-9-9-6-
E--9--9--9--9--9--9----7-7-7-7-7-7-4-

you can think of the order cause i dont feel like putting it on

Almost there ...

Sign in to get your own page with links to favourite songs and more. You are just one click away...

Login with Facebook Login with Google