Log in

One click and you are in

Login with Facebook Login with Google

Why sign up and log in

Guitar Tabs Explorer
Rammstein guitar tabs for Weisses fleisch

Guitar tabs

Album: Herzeleid

Tabbed by Kristof Smits


Intro:
Synthesizer & Drum

"WEI-SSES FLEISCH!"
Riff:
      x8       Fill
e------------|------|
B------------|------|
G------------|--5b--|
D------------|------|
A------4/5---|------|
E--2-2-2/3---|------|
PM . .


Verse (listen to song for timing):
      x4       Fill
e------------|------|
B------------|------|
G------------|--5b--|
D------------|------|
A------4/5---|------|
E--2-2-2/3---|------|
PM . .


Chorus:
e---------------------------------------------
B---------------------------------------------
G---------------------------------------------
D--5--2-------7--5--4--------5--2------7--5---
A--5--2-------7--5--4------5-5--2------7--5---
E--3--0-------5--3--2------3-3--0------5--3---
PM                         .

Solo (guitar 2):
e-------------------------------------------
B--17b-17b-17b-17-14-17b-17b-17b-17p14------
G--------------------------------------16---
D-------------------------------------------
A-------------------------------------------
E-------------------------------------------

e--------------------------------------17b---
B--17b-17b-17b-17-14-17b-17b-17b-17p14-------
G--------------------------------------------
D--------------------------------------------
A--------------------------------------------
E--------------------------------------------

e-------------------------------------------
B--17b-17b-17b-17-14-17b-17b-17b-17p14------
G--------------------------------------16---
D-------------------------------------------
A-------------------------------------------
E-------------------------------------------

e--17p14-17p14--------------------------------
B--------------17p14-17p14-----14-------------
G---------------------------16----16-14-16b---
D---------------------------------------------
A---------------------------------------------
E---------------------------------------------

e----------------------------------------------
B----------------------------------------------
G--16p14-16p14---------------------------------
D--------------16p14-16p14------14-------------
A----------------------------16----16-14-16b---
E----------------------------------------------


Solo backing (guitar 1):
                                  (x4)
e------------------------------------
B------------------------------------
G------------------------------------
D------------------------------------
A--2-4-5-4-2-4-5-4-2-4-5-4-2-4-5-4---
E--0-2-3-2-0-2-3-2-0-2-3-2-0-2-3-2---
PM . . . . . . . . . . . . . . . .


Outro:
e------------------------------
B------------------------------
G------------------------------
D------------------------------
A--3-4-3-4-3-4-3-4-3-4-3-4-3---
E--1-2-1-2-1-2-1-2-1-2-1-2-1---
PM . . . . . . . . . . . .

Song structure:

Intro

Riff x2     (00:22)

Verse       (00:33)

Chorus      (01:15)

Riff        (01:26)

Verse       (01:37)

Chorus      (02:03)

Solo        (02:17)

Verse       (02:39)

Chorus x2   (03:04)

Outro       (03:30)
A chord diagramA majorA correction of my previous tab.

Other versions of Weisses Fleisch

Weisses fleisch (Ver. 2)Tabs

Almost there ...

Sign in to get your own page with links to favourite songs and more. You are just one click away...

Login with Facebook Login with Google