Log in

One click and you are in

Login with Facebook Login with Google

Why sign up and log in

Guitar Tabs Explorer
Rammstein guitar tabs for Weisses fleisch (Ver. 2)

Guitar tabs

Tuning: A chord diagramC#C#  A chord diagramG#G#  A chord diagramC#C#  A chord diagramF#F#  A chord diagramA#A#  d#

Now. I know that this is a weird tuning, but I'll explain. The original song is in Eb/D#, and it's pretty easy
 once you get the hang of it. But if you just want it to
SOUND like it, and NOT to do all of the work, then you would do this.
Main Riff
d#|------------------------------------|
A#|------------------------------------|
F#|*-----------------------------5b---*|
C#|*-----4/5-----4/5-----4/5----------*|
G#|------4/5-----4/5-----4/5-----------|
D#|--0-0-2/3-0-0-2/3-0-0-2/3-0-0-------|
PM   . .     . .     . .     . .

                   VS


Main Riff
d#|------------------------------------|
A#|------------------------------------|
F#|*-----------------------------5b---*|
C#|*-----4/5-----4/5-----4/5----------*|
G#|------4/5-----4/5-----4/5-----------|
C#|--0-0-4/5-0-0-4/5-0-0-4/5-0-0-------|
PM   . .     . .     . .     . .

Explanation: Simple Math - Going down 2 frets on the top string means you have to drop the tuning with every
fret, and that's how you get C#/Db

So let's go

[Intro]

d#|--------------------------------------------------------------------|
A#|--------------------------------------------------------------------|
F#|*-------------------------------------------------------------5b---*|
C#|*-----4/5-----4/5-----4/5-----4/5-----4/5-----4/5-----4/5----------*|x2
G#|------4/5-----4/5-----4/5-----4/5-----4/5-----4/5-----4/5-----------|
D#|--0-0-4/4-0-0-4/5-0-0-4/5-0-0-4/5-0-0-4/5-0-0-4/5-0-0-4/5-0-0-------|
PM   . .     . .     . .     . .     . .     . .     . .     . .


[Main Riff]

d#|------------------------------------|
A#|------------------------------------|
F#|*-----------------------------5b---*|
C#|*-----4/5-----4/5-----4/5----------*| (Repeat as needed)
G#|------4/5-----4/5-----4/5-----------|
C#|--0-0-4/5-0-0-4/5-0-0-4/5-0-0-------|
PM   . .     . .     . .     . .


[Chorus]

d#|-----------------------------------------------|
A#|-----------------------------------------------|
F#|-----------------------------------------------|
C#|--5---2------7---5---4-------5---2------7---5--|
G#|--5---2------7---5---4-------5---2------7---5--|
D#|--5---2------7---5---4---0-0-5---2------7---5--|
pm                          . .


[Intro]

d#|--------------------------------------------------------------------|
A#|--------------------------------------------------------------------|
F#|*-------------------------------------------------------------5b---*|
C#|*-----4/5-----4/5-----4/5-----4/5-----4/5-----4/5-----4/5----------*| x2
G#|------4/5-----4/5-----4/5-----4/5-----4/5-----4/5-----4/5-----------|
D#|--0-0-4/4-0-0-4/5-0-0-4/5-0-0-4/5-0-0-4/5-0-0-4/5-0-0-4/5-0-0-------|


[Chorus]

d#|-----------------------------------------------|
A#|-----------------------------------------------|
F#|-----------------------------------------------|
C#|--5---2------7---5---4-------5---2------7---5--|
G#|--5---2------7---5---4-------5---2------7---5--|
D#|--5---2------7---5---4---0-0-5---2------7---5--|


[Solo]

(1st guitar)
(With some slight chorus and reverb)

d#|----------------------------------------------------------|
A#|--17b19-17b19-17b19-17b19-14-17b19-17b19-17b19r17p14------|
F#|-----------------------------------------------------16~--|
C#|----------------------------------------------------------|
G#|----------------------------------------------------------|
D#|----------------------------------------------------------|


d#|--------------------------------------------------14-17b19r17p14--|
A#|--17b19-17b19-17b19-17b19-14-17b19-17b19-17b19r17-----------------|
F#|------------------------------------------------------------------|
C#|------------------------------------------------------------------|
G#|------------------------------------------------------------------|
D#|------------------------------------------------------------------|


d#|----------------------------------------------------------|
A#|--17b19-17b19-17b19-17b19-14-17b19-17b19-17b19r17p14------|
F#|-----------------------------------------------------16~--|
C#|----------------------------------------------------------|
G#|----------------------------------------------------------|
D#|----------------------------------------------------------|


d#|--17p14----14-------------------------------------------------------------------------|
A#|--------17----17p14-17p14----14-------------------------------------------------------|
F#|--------------------------16----16p14-16b18~-16p14----14------------------------------|
C#|---------------------------------------------------16----16p14-16p14----14------------|
G#|---------------------------------------------------------------------16----16p14-16~--|
D#|--------------------------------------------------------------------------------------|


(2nd guitar )
d#|-----------------|
A#|-----------------|
F#|*---------------*|
C#|*---------------*| x16
G#|-----------------|
D#|--2---4---5---4--|
PM   .   .   .   .


[Main Riff]

d#|------------------------------------|
A#|------------------------------------|
F#|*-----------------------------5b---*|
C#|*-----4/5-----4/5-----4/5----------*| (Repeat as needed)
G#|------4/5-----4/5-----4/5-----------|
C#|--0-0-4/5-0-0-4/5-0-0-4/5-0-0-------|


[Last chorus]

d#|-----------------------------------------------------------------|
A#|-----------------------------------------------------------------|
F#|-----------------------------------------------------------------|
C#|--5---2------7---5-------4----------5---2------7---5---4---------|
G#|--5---2------7---5-------4----------5---2------7---5---4---------|
D#|--5---2------7---5---0---4------0---5---2------7---5---4------0--|
PM                      .          . .                           .


d#|------------------------------------------------------|
A#|------------------------------------------------------|
F#|------------------------------------------------------|
C#|--5---2------7---5-------4----------5---2------7---5--|
G#|--5---2------7---5-------4----------5---2------7---5--|
D#|--5---2------7---5---0---4------0-0-5---2------7---5--|
PM                      .          . .


[Ending Riff]

d#|-----------------------------------------------------|
A#|-----------------------------------------------------|
F#|-----------------------------------------------------|
C#|--------------------------------------------------4--|
G#|--------------------------------------------------4--|
D#|--0---1---0---1---0---1---0---1---0---1---0---1---4--|
PM   .   .   .   .   .   .   .   .   .   .   .   .

Other versions of Weisses Fleisch

Weisses fleischTabs

Almost there ...

Sign in to get your own page with links to favourite songs and more. You are just one click away...

Login with Facebook Login with Google