Search tabs and chords

Search for song, artist or band

Log in

One click and you are in

Login with Facebook Login with Google

Why sign up and log in

Guitar Tabs Explorer
Rammstein guitar tabs for Te quiero puta

Guitar tabs

Intro / Break
D|-----|
A|-----|
F| chord diagramF|F|-----|
C| chord diagramC|C|--1--|
G|--1--|
C| chord diagramC|C|--1--|
Main riff
D|-----------------------------------|
A|-----------------------------------|
F| chord diagramF|F|*---------------------------------*|
C| chord diagramC|C|*---------------------------------*|
G|----1-0---1-0---0---0-----0---1-0--|
C| chord diagramC|C|--0-1-0-0-1-0-0-0-0-0-0-0-0-0-1-0--|
pm  .     .     .   .   . .   .

D|-----------------------------------|
A|-----------------------------------|
F| chord diagramF|F|*---------------------------------*|
C| chord diagramC|C|*---------------------------------*|
G|-----------------------------------|
C| chord diagramC|C|--0-1-0-0-1-0-0-0-0-0-0-0-0-0-1-0--|


Pre-chorus 1:
D|-----------------------------------|
A|-----------------------------------|
F| chord diagramF|F|-----------------------------------|
C| chord diagramC|C|-----------------------------------|
G|-----------------------------------|
C| chord diagramC|C|--0-1-0-0-1-0-0-0-x-0-x-0-0-0-1-0--|

D|-------------------------|
A|-------------------------|
F| chord diagramF|F|-------------------------|
C| chord diagramC|C|-------------------------|
G|-------------------------|
C| chord diagramC|C|--0-1-0-0-1-0-0-0-x-0-x--|

Verse [ With WAH ]
D|-----------------------------------|
A|-----------------------------------|
F| chord diagramF|F|*---------------------------------*|
C| chord diagramC|C|*---------------------------------*|x7
G|-----------------------------------|
C| chord diagramC|C|--0-1-0-0-1-0-0-0-0-0-0-0-0-0-1-0--|

D|-----------------------------------------|
A|-----------------------------------------|
F| chord diagramF|F|-----------------------------------------|
C| chord diagramC|C|-----------------------------------------|
G|-----------------------------------------|
C| chord diagramC|C|--0-1-0-0-1-0-0-12-12-12-12-12-12-12-12--|


Pre-chorus 2:
Guitar with wah:
D|-----------------------------------|
A|-----------------------------------|
F| chord diagramF|F|-----------------------------------|
C| chord diagramC|C|-----------------------------------|
G|-----------------------------------|
C| chord diagramC|C|--0-1-0-0-1-0-0-0-0-0-0-0-0-0-1-0--|

D|-----------------------------------|
A|-----------------------------------|
F| chord diagramF|F|-----------------------------------|
C| chord diagramC|C|-----------------------------------|
G|-----------------------------------|
C| chord diagramC|C|--0-1-0-0-1-0-0-0-0-0-0-0-x---1-0--|

D|-----------------------------------|
A|-----------------------------------|
F| chord diagramF|F|-----------------------------------|
C| chord diagramC|C|-----------------------------------|
G|-----------------------------------|
C| chord diagramC|C|--0-1-0-0-1-0-0-0-0-0-0-0-0-0-1-0--|

D|-----------------------------------|
A|-----------------------------------|
F| chord diagramF|F|-----------------------------------|
C| chord diagramC|C|-----------------------------------|
G|-----------------------------------|
C| chord diagramC|C|--0-1-0-0-1-0-0-12-12-12-----------|

Right guitar:
D|-----------------------------------|
A|-----------------------------------|
F| chord diagramF|F|-----------------------------------|
C| chord diagramC|C|-----------------------------------|
G|-----------------------------------|
C| chord diagramC|C|--0-1-0-0-1-0-0-0-x-0-x-0-0-0-1-0--|

D|-----------------------------------|
A|-----------------------------------|
F| chord diagramF|F|-----------------------------------|
C| chord diagramC|C|-----------------------------------|
G|-----------------------------------|
C| chord diagramC|C|--0-1-0-0-1-0-0-0-x-0-x-0-x---1-0--|

D|-----------------------------------|
A|-----------------------------------|
F| chord diagramF|F|-----------------------------------|
C| chord diagramC|C|-----------------------------------|
G|-----------------------------------|
C| chord diagramC|C|--0-1-0-0-1-0-0-0-x-0-x-0-0-0-1-0--|

D|-----------------------|
A|-----------------------|
F| chord diagramF|F|-----------------------|
C| chord diagramC|C|-----------------------|
G|-----------------------|
C| chord diagramC|C|--0-1-0-0-1-0-0-0-x-0--|


Second break at 2.36
D|-----|
A|-----|
F| chord diagramF|F|-----|
C| chord diagramC|C|--5--|
G|--5--|
C| chord diagramC|C|--5--|

"Interlude"
D|-----------------------------------|
A|-----------------------------------|
F| chord diagramF|F|*---------------------------------*|
C| chord diagramC|C|*---------------------------------*|x3
G|--0-----0-----0---0-----0-----0----|
C| chord diagramC|C|--0-----0-----0---0-----0-----0----|
pm  .     .     .   .     .     .

D|-----------------------------------|
A|-----------------------------------|
F| chord diagramF|F|-----------------------------------|
C| chord diagramC|C|----------------------4-5-4--------|
G|--0-----0-----0---0---------6~-----|
C| chord diagramC|C|--0-----0-----0---0----------------|
pm  .     .     .   .

D|-----------------------------------|
A|-----------------------------------|
F| chord diagramF|F|*---------------------------------*|
C| chord diagramC|C|*---------------------------------*|x8
G|--0-----0-----0---0-----0-----0----|
C| chord diagramC|C|--0-----0-----0---0-----0-----0----|
pm  .     .     .   .     .     .

End (triplets)
D|---------------------------------------------------|
A|---------------------------------------------------|
F| chord diagramF|F|---------------------------------------------------|
C| chord diagramC|C|--8-8-8-8-8-8-8-8-8-8-8-8-8-8-8-8-8-8-8-8-8-8-8-8--|
G|--5-5-5-5-5-5-5-5-5-5-5-5-5-5-5-5-5-5-5-5-5-5-5-5--|
C| chord diagramC|C|--5-5-5-5-5-5-5-5-5-5-5-5-5-5-5-5-5-5-5-5-5-5-5-5--|

D|----------------------------------------------------------------|
A|----------------------------------------------------------------|
F| chord diagramF|F|----------------------------------------------------------------|
C| chord diagramC|C|--8-8-8-8-8-8-8-8-8-8-8-8-8-8-8-8-8-8-8-8-8-8-8-8-8-------------|
G|--5-5-5-5-5-5-5-5-5-5-5-5-5-5-5-5-5-5-5-5-5-5-5-5-5-(let ring)--|
C| chord diagramC|C|--5-5-5-5-5-5-5-5-5-5-5-5-5-5-5-5-5-5-5-5-5-5-5-5-5-------------|

Other versions of Te Quiero Puta

Te quiero putaTabs

Almost there ...

Sign in to get your own page with links to favourite songs and more. You are just one click away...

Login with Facebook Login with Google