Log in

One click and you are in

Login with Facebook Login with Google

Why sign up and log in

Guitar Tabs Explorer
Rammstein tabs for Spiel mit mir

Guitar tabs

Album: Sehnsucht
 
Tabbed by Kristof Smits
 

Intro:
Synthesizer & 'Muffled' Drum
 

Main Riff:
          (x4)
         *
e--------4--------------------------------------
B--------4--------------------------------------
G--------4--------------------------------------
D--------2--------------------------------------
A--2-2-2---2-2-2--2-2-2--3-3-3--3-3--4-4--5-5---
E--0-0-0---0-0-0--0-0-0--1-1-1--1-1--2-2--3-3---
PM . . .   . . .  . . .  . . .  . .  . .  . .
 
 (x3)
         *   
e--------2------------------------------------------
B--------2------------------------------------------
G--------2------------------------------------------
D--2-2-2-2-2-2-2--2-2-2--2-2-2--2-2-3--3-3----------
A--0-0-0---0-0-0--0-0-0--0-0-0--0-0-1--1-1-5--5-5---
E------------------------------------------3--3-3---
PM . . .   . . .  . . .  . . .  . . .  . . .  . .
*=upstrokes
 

Chorus:
(x3)
e--------------------------------------------------
B--------------------------------------------------
G--------------------------------------------------
D--4-4-4-----------------2-2-2--2-2----------------
A--2-2-2---2-2-2--2-2-2--0-0-0--0-0-3-3-3--2-2-2---
E----------0-0-0--0-0-0-------------1-1-1--0-0-0---
PM . . .   . . .  . . .  . . .  . . . . .  . . .
 
e---------------------------------------
B---------------------------------------
G---------------------------------------
D--4-4-4-----------------2-2-2--2-2-----
A--2-2-2---2-2-2--2-2-2--0-0-0--0-0-3---
E----------0-0-0--0-0-0-------------1---
PM . . .   . . .  . . .  . . .  . .
 
Interlude:
Synthesizer
 

Solo (Guitar 1 & 2):
                                                                               
 
e--------------------------------------------
B--11p0-12p0-12p0-12p0-12p0-12p0-12p0-12p0---
G--------------------------------------------
D--------------------------------------------
A--------------------------------------------
E--------------------------------------------
 
e--------------------------------------------
B--12p0-12p0-12p0-12p0-12p0-12p0-12p0-12p0---
G--------------------------------------------
D--------------------------------------------
A--------------------------------------------
E--------------------------------------------
 
e--------------------------------------------
B--11p0-12p0-12p0-12p0-12p0-12p0-12p0-12p0---
G--------------------------------------------
D--------------------------------------------
A--------------------------------------------
E--------------------------------------------
 
e--------------------------------------------
B--12p0-12p0-12p0-12p0-12p0-12p0-12p0-12p0---
G--------------------------------------------
D--------------------------------------------
A--------------------------------------------
E--------------------------------------------
 
e--------------------------------------------
B--11p0-12p0-12p0-12p0-12p0-12p0-12p0-12p0---
G--------------------------------------------
D--------------------------------------------
A--------------------------------------------
E--------------------------------------------
 
e--------------------------------------------
B--12p0-12p0-12p0-12p0-12p0-12p0-12p0-12p0---
G--------------------------------------------
D--------------------------------------------
A--------------------------------------------
E--------------------------------------------
 
e--------------------------------------------
B--11p0-12p0-12p0-12p0-12p0-12p0-12p0-12p0---
G--------------------------------------------
D--------------------------------------------
A--------------------------------------------
E--------------------------------------------
 
e---------------------------------------
B--12p0-12p0-12p0-12p0-12p0-12p0-13~~---
G---------------------------------------
D---------------------------------------
A---------------------------------------
E---------------------------------------
 
Fill:
e---------
B---------
G---------
D--3------
A--1--5---
E-----3---
 
Song structure:

Intro

Main Riff x2     (01:02)

Chorus x2        (02:16)
Interlude        (02:40)

Solo             (02:52)

Main Riff        (03:17)  first bar only
Fill             (03:46)

Main Riff        (03:48)  second bar 1 time instead of 3 times

Chorus x2        (03:55)
 

Almost there ...

Sign in to get your own page with links to favourite songs and more. You are just one click away...

Login with Facebook Login with Google