Search tabs and chords

Search for song, artist or band

Log in

One click and you are in

Login with Facebook Login with Google

Why sign up and log in

Guitar Tabs Explorer
Rammstein bass tabs for Spiel mit mir

Bass tabs

Tabbed By: Matty Lawrence
Tuning: EABG

Album: Sehnsucht

(Please note that the 11s are actually 1s)

Intro
G|-------------------------------|
D|-------------------------------|
A|-------------------------------|
E|-000--0000-000--000-000-11-11--|
(Play x4)

Pre Chorus
G|--------------------------------|
D|--------------------------------|
A|--------------------------------|
E|-555-5-555-555—-55555-6-66-3-33-|

Verse
G|-------------------------------|
D|-------------------------------|
A|-------------------------------|
E|-000--0000-000--000-000-11-11--|
(Play x4)

Pre Chorus
G|--------------------------------|
D|--------------------------------|
A|--------------------------------|
E|-555-5-555-555--55555-6-66-3-33-|
(Play x2)

Chorus
G|---------------------------------|
D|---------------------------------|
A|-222-2---------0-00-00-----------|
E|-------000-000---------1-11-0-00-|

Solo
G|-------------------------------|
D|-------------------------------|
A|-------------------------------|
E|-000--0000-000--000-000-11-11--|
(Play x4)

Verse
G|-------------------------------|
D|-------------------------------|
A|-------------------------------|
E|-000--0000-000--000-000-11-11--|
(Play x4)

Pre Chorus
G|--------------------------------|
D|--------------------------------|
A|--------------------------------|
E|-555-5-555-555--55555-6-66-3-33-|
(Play x1)

Chorus
G|---------------------------------|
D|---------------------------------|
A|-222-2---------0-00-00-----------|
E|-------000-000---------1-11-0-00-|



| / slide up
| \ slide down
| H hammer-on
| P pull-off
| ~ vibrato
| + harmonic
| X Mute note


If anyone has any questions or requests for more tabs, contact me at DerMeister@live.co.uk

Almost there ...

Sign in to get your own page with links to favourite songs and more. You are just one click away...

Login with Facebook Login with Google