Log in

One click and you are in

Login with Facebook Login with Google

Why sign up and log in

Guitar Tabs Explorer
Rammstein chords for Sonne

Guitar chords

Tabbed by : Steven Hubbard
 
Album: Mutter
 
 
Drop A chord diagramD MajorD Tuning
 

Intro (clean, palm muted):
e---------------------
B---------------------
G---------------------
D---------------------
A---------------------
D--0-0-6-0--0-0-6-0---
 

Main Riff:
e-------------------------------
B-------------------------------
G-------------------------------
D--0-0-6-0-6-5-0--0-0-6-0-6-5---
A--0-0-6-0-6-5-0--0-0-6-0-6-5---
D--0-0-6-0-6-5-0--0-0-6-0-6-5---
 
e-----------------------------------
B-----------------------------------
G-----------------------------------
D--0-0-6-0-6-5-0--0-0-6-0-6-5-5-5---
A--0-0-6-0-6-5-0--0-0-6-0-6-5-5-5---
D--0-0-6-0-6-5-0--0-0-6-0-6-5-5-5---
 

Verse A chord diagramA augmentedA (listen to song for timing):
|Guitar 1:
|Intro throughout
|
|Guitar 2:
|e-------------------------------
|B-------------------------------
|G-------------------------------
|D--0-0-6-0-6-5-0--0-0-6-0-6-5---
|A--0-0-6-0-6-5-0--0-0-6-0-6-5---
|D--0-0-6-0-6-5-0--0-0-6-0-6-5---
 

Chorus A:
e----------------------
B----------------------
G----------------------
D--2----/9----7----5---
A--2----/9----7----5---
D--2----/9----7----5---
 

Chorus A chord diagramBB (synth arranged for guitar):
e--------------14---           -------------
B-----12-14-15------ two times -------------
G--11--------------- then      --10--8--11--
D-------------------           -------------
 

Verse B:
Synth, Drum & Vocals
 

Outro (vocals arranged for guitar):
                                         (x2)
e--------------14-------------------12------
B-----12-14-15----12-------12-14-15----14---
G--11-------------------11------------------
D-------------------------------------------
A-------------------------------------------
D-------------------------------------------
 
e--------------------------------
B------------------12-14-15-12---
G--10--8--11----11---------------
D--------------------------------
A--------------------------------
D--------------------------------
 
Song structure:

Intro x9

Main Riff x2     (00:20)

Verse A          (00:33)

Chorus A chord diagramA augmentedA x4      (00:58)

Main Riff        (01:24)

Verse A          (01:30)

Chorus A chord diagramA augmentedA x4      (01:56)

Chorus A, B      (02:22)

Verse B          (02:47)

Chorus A, B      (03:13)

Outro            (04:04)       

ⓘ Guitar chords for 'Sonne' by Rammstein, an industrial metal band formed in 1994 from Berlin, Germany

Almost there ...

Sign in to get your own page with links to favourite songs and more. You are just one click away...

Login with Facebook Login with Google