Search tabs and chords

Search for song, artist or band

Log in

One click and you are in

Login with Facebook Login with Google

Why sign up and log in

Guitar Tabs Explorer
Rammstein guitar tabs for Seemann

Guitar tabs with lyrics

artist: Rammstein
album: Herzeleid
title: Seemann

 * arranged for guitar by Pattis Stefan, based on the
bass tab by Aaron Czerniak

The following riff is repeated throughout the entire
song.  During the
chorus, I believe  there is a second bass track of the
root notes being played
BASS (arranged for Guitar)


|---------9---------------7----------------------------------------|----
|----------------------------------------10---------------9--------|----
|------9-----9--------9--------9-----9--------9--------9-----------|----
|------------------------------------------------------------------|----
|--0--------------0---------------0---------------0----------------|----
|------------------------------------------------------------------|----


|----------------------------------------4---------------4---------|----
|----------7-------------7-----------------------------------------|----
|------4------4------4-------4-------4-------4-------4-------------|----
|---6------------6---------------6---------------6-----------------|----
|------------------------------------------------------------------|----
|------------------------------------------------------------------|----


|---------5------------4-------------------------------------------|----
|--------------------------------------7------------------5--------|----
|-----6------6-----6-------6-------6-------6-----------------------|----
|--4------------4--------------4--------------4-------4------------|----
|------------------------------------------------------------------|----
|------------------------------------------------------------------|----

|------------------------------------------------------------------|----
|------------------------------------------------------------------|----
|---------6-------------4---------------6------------------6-------|----
|-----6-------6------6------6------6---------6---------6-----------|----
|--4--------------4------------4------------------4----------------|----
|------------------------------------------------------------------|----



(distorted) GUITAR (chorus only)

  trem. picking throughout - [basically, strum as fast
as you can]

* the chord is played until the end of the bar
---------------here----->


|------------------------------------------------------------------|----
|------------------------------------------------------------------|----
|------------------------------------------------------------------|----
|-11---------------------------------------------------------------|----
|-11---------------------------------------------------------------|----
|--9---------------------------------------------------------------|----


|------------------------------------------------------------------|----
|------------------------------------------------------------------|----
|------------------------------------------------------------------|----
|--9---------------------------------------------------------------|----
|--9---------------------------------------------------------------|----
|--7---------------------------------------------------------------|----



|------------------------------------------------------------------|----
|------------------------------------------------------------------|----
|------------------------------------------------------------------|----
|--7---------------------------------------------------------------|----
|--7---------------------------------------------------------------|----
|--5---------------------------------------------------------------|----


|------------------------------------------------------------------|----
|------------------------------------------------------------------|----
|------------------------------------------------------------------|----
|--6---------------------------------------------------------------|----
|--6---------------------------------------------------------------|----
|--4---------------------------------------------------------------|----

Other versions of Seemann

SeemannChords
Seemann (Ver. 2)Tabs

Almost there ...

Sign in to get your own page with links to favourite songs and more. You are just one click away...

Login with Facebook Login with Google