Search tabs and chords

Search for song, artist or band

Log in

One click and you are in

Login with Facebook Login with Google

Why sign up and log in

Guitar Tabs Explorer
Rammstein guitar tabs for Schwarzes glas

Guitar tabs

Title: Schwarzes Glas
          Album: Unreleased

          (standard tuning)

          such a simple song, yet oh, so good! :)

          intro
          ------------
          ------------
          ------------
          -7-10-7-8/5-
          -7-10-7-8/5-
          -7-10-7-8/5-

          verse
          ----------------
          ----------------
          ----------------
          -2-2-2-2-2/3-0--
          -2-2-2-2-2/3-0--
          -2-2-2-2-2/3-0--

          chorus
          ----------------
          ----------------
          ----------------
          -3-0-7-10-7-8/5-
          -3-0-7-10-7-8/5-
          -3-0-7-10-7-8/5-

          solo/outro
          ------------------------------------------------------------------------------
          -----12-0-----12-0-----12-0-10-0-7-0-----10-0-----7-0---------8-0-------------
          -9-0------9-0------9-0---------------7-0------7-0-----7-0-5-0-----5-0---------
          ------------------------------------------------------------------------------
          ------------------------------------------------------------------------------
          ------------------------------------------------------------------------------


          ----------------------
          -8-0-----8-0-----8-0--
          -----5-0-----5-0------
          ----------------------
          ----------------------

Almost there ...

Sign in to get your own page with links to favourite songs and more. You are just one click away...

Login with Facebook Login with Google