Search tabs and chords

Search for song, artist or band

Log in

One click and you are in

Login with Facebook Login with Google

Why sign up and log in

Guitar Tabs Explorer
Rammstein bass tabs for Roter sand orchester version

Roter Sand Orchester Version bass tab by Rammstein

Rammstein bass tabs for Roter sand orchester version

Bass tabs

-------------------------------------------------------------------------------
                 Roter Sand (Orchester Version) - Rammstein
-------------------------------------------------------------------------------
Tabbed by: Stancranford
E-mail: simonhawkinsuk@gmail.com

Tuning: EADG

Intro

G|----------------------------|---------------------------|
D|----------------------------|---------------------------|
A|----------------------3--3--|----------------------3----|
E|-3--3---3--3---5--5---------|-3--3---3--3---5--5--------|

Verse 1

G|------------------------------------------------------------|
D|------9---9--------9---9h10p9-------9---9--------9---10-9---|
A|-/7-7---7---7--7-7---7--------7-7-7---7---7--7-7---7--------|
E|------------------------------------------------------------|
                       x3
G|----------------------|------------------------|
D|-----9---9------9---9-|-----9---9------9-------|
A|-7-7---7----7-7---7---|-7-7---7----7-7---7-5-7-|
E|----------------------|------------------------|
                       x3
G|----------------------|------------------------|
D|-----9---9------9---9-|-----9---9------9-------|
A|-7-7---7----7-7---7---|-7-7---7----7-7---7-5-3-|
E|----------------------|------------------------|

Chorus

G|------------------------------------------------------------|
D|------------------------------------------------------------|
A|----------------------------------------------3--3-3--3-3-3-|
E|-3--3-3--3-3-3--3--3-3--3-3-3--5--5-5--5-5-5----------------|

Bridge

G|---------------------------------------------------|
D|---------------------------------------------------|
A|-7--7-7--7-7--5--5-5-5-5--3--3-3--3-3--3--3-3--3-3-|
E|---------------------------------------------------|

Verse 2

G|------------------------------------------------------------|
D|------9---9--------9---9h10p9-------9---9--------9---10-9---|
A|-/7-7---7---7--7-7---7--------7-7-7---7---7--7-7---7--------|
E|------------------------------------------------------------|
                       x2                                               x3
G|----------------------|------------------------------------------------|
D|-----9---9------9---9-|-----9---9------9---9--------9---9------9---9---|
A|-7-7---7----7-7---7---|---7---7----7-7---7---7--7-7---7----7-7---7---7-|
E|----------------------|-0----------------------------------------------|

End

G|---------|
D|---------|
A|---------|
E|-3-------|


Order:
Intro x 1
Verse 1 x 1
Chorus x 4
Verse 2 x 1
Chorus x 4
Bridge x 2
Chorus x 4
End x 1


| /  slide up
| \  slide down
| h  hammer-on
| p  pull-off
| ~  vibrato
| +  harmonic
| x  Mute note

Almost there ...

Sign in to get your own page with links to favourite songs and more. You are just one click away...

Login with Facebook Login with Google