Search tabs and chords

Search for song, artist or band

Log in

One click and you are in

Login with Facebook Login with Google

Why sign up and log in

Guitar Tabs Explorer
Rammstein bass tabs for Rosenrot (Ver. 2)

Bass tabs

This is what you already had up, but after listening to the song and reading the tabs,
I noticed that there was an error in the Chorus. I've made the correction based on what I heard.

Intro(X5)
G|-----------------------------------------------------------------|
D|-----------------------------------------------------------------|
A|--3-3-3-3-3-3-3-3---------------3-3-3-3-3-3-3-3---------6-6-6----|
E|-----------------4-4-4-4-4-4-4-4---------------4-4-4-4-4---------|
Chorus(X2)
G|---------------------------------------------------------------------|
D|---------------------------------------------------------------------|
A|---------------------------------------------------------------------|
E|--3-3-3-3-3-3-3-3--4-4-4-4-4-4-4-4--3-3-3-3-3-3-3-3--4-4-4-4-4-0-0-0-|
Verse(X4)
G|-----------------------------------------------------------------|
D|-----------------------------------------------------------------|
A|--3-3-3-3-3-3-3-3---------------3-3-3-3-3-3-3-3---------6-6-6----|
E|-----------------4-4-4-4-4-4-4-4---------------4-4-4-4-4---------|
Chorus(X4)
G|---------------------------------------------------------------------|
D|---------------------------------------------------------------------|
A|---------------------------------------------------------------------|
E|--3-3-3-3-3-3-3-3--4-4-4-4-4-4-4-4--3-3-3-3-3-3-3-3--4-4-4-4-4-0-0-0-|
Bridge(x2)
G|------------------------------------------------------------------|
D|------------------------------------------------------------------|
A|-0-0-7-0-0-7-0-7-0-0-8-0-0-8-0-8-0-0-6-0-0-6-0-6-0-0-5-0-0-5-0-5--|
E|------------------------------------------------------------------|
Verse(4X)
G|-----------------------------------------------------------------|
D|-----------------------------------------------------------------|
A|--3-3-3-3-3-3-3-3---------------3-3-3-3-3-3-3-3---------6-6-6----|
E|-----------------4-4-4-4-4-4-4-4---------------4-4-4-4-4---------|
Chorus(4X)
G|---------------------------------------------------------------------|
D|---------------------------------------------------------------------|
A|---------------------------------------------------------------------|
E|--3-3-3-3-3-3-3-3--4-4-4-4-4-4-4-4--3-3-3-3-3-3-3-3--4-4-4-4-4-0-0-0-|
Bridge(x2)
G|------------------------------------------------------------------|
D|------------------------------------------------------------------|
A|-0-0-7-0-0-7-0-7-0-0-8-0-0-8-0-8-0-0-6-0-0-6-0-6-0-0-5-0-0-5-0-5--|
E|------------------------------------------------------------------|

Other versions of Rosenrot

RosenrotBass tabs

Almost there ...

Sign in to get your own page with links to favourite songs and more. You are just one click away...

Login with Facebook Login with Google