Search tabs and chords

Search for song, artist or band

Log in

One click and you are in

Login with Facebook Login with Google

Why sign up and log in

Guitar Tabs Explorer
Rammstein guitar tabs for Ramstein

Guitar tabs with lyrics

INTRO/VERSE
--------------------------------------|--------------------------------------|
--------------------------------------|--------------------------------------|
------9/10-----9/10-----9/10-----10\9-|------9/10-----9/10-----9/10-----10\9-|
------9/10-----9/10-----9/10-----10\9-|------9/10-----9/10-----9/10-----10\9-|
------7/8------7/8------7/8-------8\7-|------7/8------7/8------7/8-------8\7-|
--0-0------0-0------0-0---------------|-0-0------0-0------0-0----------------|
  ^Õ        ^Õ        ^Õ        ^Õ          ^Õ        ^Õ        ^Õ        ^Õ
--------------------------------------|--------------------------------------|
--------------------------------------|--------------------------------------|
------9/10-----9/10-----9/10-----10\9-|------9/10-----9/10-----9/10----------|
------9/10-----9/10-----9/10-----10\9-|------9/10-----9/10-----9/10----------|
------7/8------7/8------7/8-------8\7-|------7/8------7/8------7/8-----------|
--0-0------0-0------0-0---------------|-0-0------0-0------0-0----------------|
  ^Õ        ^Õ        ^Õ        ^Õ          ^Õ        ^Õ        ^Õ        ^Õ

BRIDGE
------------------------------------|--------------------------------------|
------------------------------------|--------------------------------------|
------------------------------------|--------------------------------------|
5\2--------------------------xxxxxx5\2-------------------------------------|
5\2--------------------------xxxxxx5\2-------------------------------------|
3\0--------------------------xxxxxx3\0-------------------------------------|
  ^Õ        ^Õ        ^Õ        ^Õ       ^Õ        ^Õ        ^Õ        ^Õ

SOLO PART 1 (guitar 2 - over verse progression)

--7p0-9p0-10p0-9p0-7p0-9p0-10p0-9p0-7p0-9p0-10p0-9p0-7p0-9p0-7p0-9p0-|
---------------------------------------------------------------------|
---------------------------------------------------------------------|
 play this
---------------------------------------------------------------------|
 part 3x
---------------------------------------------------------------------|
---------------------------------------------------------------------|
  ^Õ                ^Õ                ^Õ                ^Õ

--7p0-9p0-10p0-9p0-7p0-9p0-10p0-9p0----------------------------------|
------------------------------------0h7-8p0-10p0-8p0-0-7/8\7vvvvvvvvv|
---------------------------------------------------------------------|
---------------------------------------------------------------------|
---------------------------------------------------------------------|
---------------------------------------------------------------------|
  ^Õ                ^Õ                ^Õ                ^Õ

--------------------------------------|--------------------------------------|
vvvvvvvvvvvvvvvvvvvvvvvvvvvvvvvvvvvv7/8\7vvvvvvvvvvvvvvvvvvvvvvvvvvvvvvvvvvvv|
--------------------------------------|--------------------------------------|
--------------------------------------|--------------------------------------|
--------------------------------------|--------------------------------------|
--------------------------------------|--------------------------------------|
  ^Õ        ^Õ        ^Õ        ^Õ          ^Õ        ^Õ        ^Õ        ^Õ

SOLO PART 2 (this part of the solo is double-picked)

-----------------------------------|---------------------------------------|
--5-5-5-5-5-5-5-5-5-5-5-5-8-8-3-3-3/5-5-5-5-5-5-5-5-10-10-10-10-13-13-13-13|
-----------------------------------|---------------------------------------|
-----------------------------------|---------------------------------------|
-----------------------------------|---------------------------------------|
-----------------------------------|---------------------------------------|
  ^Õ       ^Õ       ^Õ       ^Õ         ^Õ       ^Õ       ^Õ           ^Õ

-----------------------------------|-------------------------------|
--5-5-5-5-5-5-5-5-5-5-5-5-8-8-3-3-3/5-5-5-5-5-5-5-5-0-0-0-0-1-1-1-1|
-----------------------------------|-------------------------------|
-----------------------------------|-------------------------------|
-----------------------------------|-------------------------------|
-----------------------------------|-------------------------------|
  ^Õ       ^Õ       ^Õ       ^Õ         ^Õ       ^Õ       ^Õ       ^Õ

-----------------------------------|---------------------------------------|
--5-5-5-5-5-5-5-5-5-5-5-5-8-8-3-3-3/5-5-5-5-5-5-5-5-10-10-10-10-13-13-13-13|
-----------------------------------|---------------------------------------|
-----------------------------------|---------------------------------------|
-----------------------------------|---------------------------------------|
-----------------------------------|---------------------------------------|
  ^Õ       ^Õ       ^Õ       ^Õ         ^Õ       ^Õ       ^Õ           ^Õ

-----------------------------------|-------------------------------|
--5-5-5-5-5-5-5-5-5-5-5-5-8-8-3-3-3/5-5-5-5-5-5-5-5-0-0-0-0-1-1-1-1|
-----------------------------------|-------------------------------|
-----------------------------------|-------------------------------|
-----------------------------------|-------------------------------|
-----------------------------------|-------------------------------|
  ^Õ       ^Õ       ^Õ       ^Õ         ^Õ       ^Õ       ^Õ       ^Õ

END RIFF (guitar 1)
--------------------------------------|
--------------------------------------|
------9/10-----9/10-----9-------------|
------9/10-----9/10-----9-------------|
------7/8------7/8------7-------------|
--0-0------0-0------0-0---------------|
  ^Õ        ^Õ        ^Õ        ^Õ

END RIFF (guitar 2)
--------------------------------------|
--5vvvvvvvvvvvvvvvvvvvvvvvvv----------|
--------------------------------------|
--------------------------------------|
--------------------------------------|
--------------------------------------|
  ^Õ        ^Õ        ^Õ        ^Õ

Almost there ...

Sign in to get your own page with links to favourite songs and more. You are just one click away...

Login with Facebook Login with Google