Search tabs and chords

Search for song, artist or band

Log in

One click and you are in

Login with Facebook Login with Google

Why sign up and log in

Guitar Tabs Explorer
Rammstein guitar tabs for Rammvier ramm4

Guitar tabs

Tuning : Drop D chord diagramDD / DADGBE

Submitted by Javier

As the song has not been officially released, this has been transcribed from the live version of the first
performance, because of this I have corrected what I thought were misplayed notes.

Main Riff x 8
Hold x 2
Intro x 4

8 bar rest;

Verse x 2
Buildup x 1
Main Riff x 4
Hold x 1

Verse x 2
Buildup x 1
Main Riff x 8

8 bar rest;
Solo x 1
Post Solo Nana x 2
Post Solo Buildup x 2
Main Riff x 8

At the end of each buildup (excluding post solo),
Two bars of the main riff are played without distortion.


Main Riff:

PM
e|------------------------|-----------------------|
B|------------------------|-----------------------|
G|------------------------|-----------------------|
D|5---5-----5-5---5-----5-5---5-8---8-3---3-6---6-|
A|5---5-----5-6---6-----6-7---7-8---8-3---3-6---6-|
D|5---5-----5-5---5-----5-5---5-8---8-3---3-6---6-|

Hold:
e|------------|-----------|-----------|-----------|
B|------------|-----------|-----------|-----------|
G|------------|-----------|-----------|-----------|
D|5-----------|-----------|-----------|-----------|
A|5-----------|-----------|-----------|-----------|
D|5-----------|-----------|-----------|-----------|


Verse:

e|------------------------|-----------------------|-----------------------|-----------------------|
B|------------------------|-----------------------|-----------------------|-----------------------|
G|------------------------|-----------------------|-----------------------|-----------------------|
D|5---5-----5-5---5-----5-5---5-----5-8---8-3---3-5---5-----5-5---5-----5-5---5-----5-5---5-5---5-|
A|5---5-----5-5---5-----5-5---5-----5-8---8-3---3-5---5-----5-5---5-----5-5---5-----5-5---5-5---5-|
D|5---5-----5-5---5-----5-5---5-----5-8---8-3---3-5---5-----5-5---5-----5-5---5-----5-5---5-5---5-|

e|------------------------|-----------------------|-----------------------|-----------------------|
B|------------------------|-----------------------|-----------------------|-----------------------|
G|----------------------3-3---3-------------------|-----------------------|-----------------------|
D|3---3-----3-3---3-----3-3---3-----3-3---3-3---3-5---5-----5-5---5-----5-5---5-----5-8---8-3---3-|
A|3---3-----3-3---3-----1-1---1-----3-3---3-3---3-5---5-----5-5---5-----5-5---5-----5-8---8-3---3-|
D|3---3-----3-3---3-------|---------3-3---3-3---3-5---5-----5-5---5-----5-5---5-----5-8---8-3---3-|


Buildup:

e|------------|-----------|-----------|-----------|-----------|-----------|
B|------------|-----------|-----------|-----------|-----------|-----------|
G|------------|-----------5-----------7-----------|-----------|-----------|
D|1-----------0-----------5-----------7-----------3-----------|-----------|
A|1-----------0-----------3-----------5-----------3-----------|-----------|
D|1-----------0-----------|-----------|-----------3-----------|-----------|


Solo:

e|------------------------|-----------------------|-----------------------|-----------------------|
B|------------------------|-----------------------|-----------------------|-----------------------|
G|------------------------|-----------------------|-----------------------|-----------------------|
D|------------5-----------|-----------------------|-----------5-----------|-----------------------|
A|------------------------4-----------------------|-----------------------4-----------------------|
D|5-----------------------|---------7-4-----7-----5-----------------------|---------7-4-----7-----|

e|------------------------|-----------------------|-----------------------|-----------------------|
B|------------------------|-----------------6-----7-----------------------|-----------------------|
G|7---------------------7-8-----7-----5-----------|-----------5-----------|-----------------------|
D|------------------------|-----------------------|-----------------------|-----------------------|
A|------------------------|-----------------------|-----------------------|-----------------------|
D|------------------------|-----------------------|-----------------------|-----------------------|


Post Solo NaNa:

e|------------|-----------|-----------|-----------|-----------|-----------|-----------|-----------|
B|------------|-----------|-----------|-----------|-----------|-----------|-----------|-----------|
G|------------|-----------|-----------|-----------|-----------|-----------|-----------|-----------|
D|------------|-----------|-----------|-----------|-----------|-----------|-----------|-----------|
A|------------|-----------|-----------|-----------|-----------|-----------|-----------|-----------|
D|5-----------|-----------5-----------|-----------3-----------|-----------5-----------|-----------|


Post Solo Buildup:

e|------------|-----------|-----------|-----------|-----------|-----------|-----------|-----------|
B|------------|-----------|-----------|-----------|-----------|-----------|-----------|-----------|
G|------------|-----------5-----------7-----------|-----------|-----------|-----------|-----------|
D|1-----------0-----------5-----------7-----------3-----------8-----6-----5-----3-----5-----------|
A|1-----------0-----------3-----------5-----------3-----------8-----6-----5-----3-----5-----------|

Almost there ...

Sign in to get your own page with links to favourite songs and more. You are just one click away...

Login with Facebook Login with Google