Search tabs and chords

Search for song, artist or band

Log in

One click and you are in

Login with Facebook Login with Google

Why sign up and log in

Guitar Tabs Explorer
Rammstein bass tabs for Rammstein

Bass tabs

piano intro an then guitars and bass.
slide down: /
slide up: \

You have to do this 3 times.

G|-------------------------------|
D|-------------------------------|
A|-------------------------------|  x3
E|-0-0-5/6--0-0-5/6--0-0-5/6--6/5|

G|---------------------------|                 D|---------------------------|
A|---------------------------|
E|-0-0-5/6--0-0-5/6--0-0-5/6-|

Part with out singing.

G|------------------|                          D|------------------|
A|------------------|     x8
E|-1-0-0-0--1-0-0-0-|



You have to do this 3 times.

G|-------------------------------|
D|-------------------------------|
A|-------------------------------|  x3
E|-0-0-5/6--0-0-5/6--0-0-5/6--6/5|

G|---------------------------|                 D|---------------------------|
A|---------------------------|
E|-0-0-5/6--0-0-5/6--0-0-5/6-|

Guitars only and then

You have to do this 2 times.

G|-------------------------------|
D|-------------------------------|
A|-------------------------------|  x3
E|-0-0-5/6--0-0-5/6--0-0-5/6--6/5|

G|---------------------------|                 D|---------------------------|
A|---------------------------|
E|-0-0-5/6--0-0-5/6--0-0-5/6-|

Part with out singing.

G|------------------|                          D|------------------|
A|------------------|     x2
E|-1-0-0-0--1-0-0-0-|

after all the song come the final guitars solo

G|-------------------------------|
D|-------------------------------|
A|-------------------------------|
E|-0-0-5/6--0-0-5/6--0-0-5/6--6/5|

until the songs end

Almost there ...

Sign in to get your own page with links to favourite songs and more. You are just one click away...

Login with Facebook Login with Google