Search tabs and chords

Search for song, artist or band

Log in

One click and you are in

Login with Facebook Login with Google

Why sign up and log in

Guitar Tabs Explorer
Rammstein guitar tabs for Nebel (Ver. 2)

Guitar tabs

Rammstein - Nebel guitar tab


Intro
Harmonics at:
(0:19)
G|--7*--|
(0:27)
B|--5*------|
G|------5*--|


Verse (1:15)
[ Clean guitar ]
e|-----------------------------------|
B|------6-------5---------------5----|
G|----------------------7------------|
D|----7---7---7---7---7---7---7---7--|
A|-----------------------------------|
E|--5-------5-------5-------5--------|


Fill
[ Clean guitar ]
e|--------5-------------------------------5--------------------------|
B|--5---6-------5---------------5---5---5-------5-------5------------|
G|----------------------7---------------------7-------7---------7----|
D|----7-------7---7---7---7---7---7---7-----------7-------7---7---7--|
A|----------------------------------5-------5-------5-------5--------|
E|--5-------5-------5-------5----------------------------------------|


e|-------------------------------------0------------0--------------------|
B|----8----10----------------------------8---10-------------6-------5----|
G|--9---11--------9-------11-------9-------7------7----------------------|
D|--------------9---9---9----9---9---9----------------7---7---7---7---7--|
A|-----------------------------------------------------------------------|
E|--0---------7-------7--------7-------8--------8-------5-------5--------|

Verse (1:53)
[ Clean guitar ]
e|-----------------------------------|   |-----------------------------------|
B|------6-------5---------------5----|   |------6-------5--------------------|
G|*---------------------7-----------*|   |----------------------7-------7----|
D|*---7---7---7---7---7---7---7---7-*|x7 |----7---7---7---7---7---7---7---7--|
A|-----------------------------------|   |--7-------7-------5-------7--------|
E|--5-------5-------5-------5--------|   |-----------------------------------|


Chorus
[ Heavy distortion ]
e|-----------------------------------------------------------------|
B|-----------------------------------------------------------------|
G|*-9---9---9---9---9---9---9---9---9---9---9---9---9---9---9---9--|
D|*-7---7---7---7---7---7---7---7---7---7---7---7---7---7---7---7--|
A|-----------------------------------------------------------------|
E|-----------------------------------------------------------------|


e|-----------------------------------------------------------------|
B|-----------------------------------------------------------------|
G|--7---7---7---7---7---7---7---7---7---7---7---7---7---7---7---7--|
D|--7---7---7---7---7---7---7---7---7---7---7---7---7---7---7---7--|
A|--5---5---5---5---5---5---5---5---5---5---5---5---5---5---5---5--|
E|-----------------------------------------------------------------|


e|-----------------------------------------------------------------|
B|-----------------------------------------------------------------|
G|-----------------------------------------------------------------|
D|--2---2---2---2---2---2---2---2---2---2---2---2---2---2---2---2--|
A|--2---2---2---2---2---2---2---2---2---2---2---2---2---2---2---2--|
E|-----------------------------------------------------------------|


e|-----------------------------------------------------------------|
B|-----------------------------------------------------------------|
G|--5---5---5---5---5---5---5---5---9---9---9---9---9---9---9---9-*|
D|--5---5---5---5---5---5---5---5---7---7---7---7---7---7---7---7-*|
A|--3---3---3---3---3---3---3---3----------------------------------|
E|-----------------------------------------------------------------|


e|---------|
B|---------|
G|--9-(f)--|
D|--7-(f)--|
A|---------|
E|---------|


Harmonic (3:15)
G|--7*--|


Solo (and last chorus)
1st guitar
[ With ?WAH-WAH? ]
e|-------------------------------------------------------------------------|
B|-------------------------------------------------------------------------|
G|--14---14---14---14---14---14--/16--/17--9---9---9---9---9---9---9---9--|
D|---x----x----x----x----x----x----x----x---x---x---x---x---x---x---x---x--|
A|--12---12---12---12---12---12--/14--/15--7---7---7---7---7---7---7---7--|
E|-------------------------------------------------------------------------|


e|-----------------------------------------------------------------|
B|-----------------------------------------------------------------|
G|--9---9---9---9---9---9---9---9---7---7---7---7---7---7---7---7--|
D|--x---x---x---x---x---x---x---x---x---x---x---x---x---x---x---x--|
A|--7---7---7---7---7---7---7---7---5---5---5---5---5---5---5---5--|
E|-----------------------------------------------------------------|


e|-----------------------------------------------------------------|
B|-----------------------------------------------------------------|
G|--9---9---9---9---9---9---9---9---4---4---4---4---4---4---4---4--|
D|--x---x---x---x---x---x---x---x---x---x---x---x---x---x---x---x--|
A|--7---7---7---7---7---7---7---7---2---2---2---2---2---2---2---2--|
E|-----------------------------------------------------------------|


e|----------------------------------------------------------------------|
B|----------------------------------------------------------------------|
G|---5---5---5---5---5---5---5--/14---14---14---14---14---14---14---14--|
D|---x---x---x---x---x---x---x----x----x----x----x----x----x----x----x--|
A|---3---3---3---3---3---3---3--/12---12---12---12---12---12---12---12--|
E|----------------------------------------------------------------------|


e|-------------------------------------------------------------------------|
B|-------------------------------------------------------------------------|
G|--14---14---14---14---14---14--/16--/17--9---9---9---9---9---9---9---9--|
D|---x----x----x----x----x----x----x----x---x---x---x---x---x---x---x---x--|
A|--12---12---12---12---12---12--/14--/15--7---7---7---7---7---7---7---7--|
E|-------------------------------------------------------------------------|


e|-----------------------------------------------------------------|
B|-----------------------------------------------------------------|
G|--9---9---9---9---9---9---9---9---7---7---7---7---7---7---7---7--|
D|--x---x---x---x---x---x---x---x---x---x---x---x---x---x---x---x--|
A|--7---7---7---7---7---7---7---7---5---5---5---5---5---5---5---5--|
E|-----------------------------------------------------------------|


e|-----------------------------------------------------------------|
B|-----------------------------------------------------------------|
G|--9---9---9---9---9---9---9---9---4---4---4---4---4---4---4---4--|
D|--x---x---x---x---x---x---x---x---x---x---x---x---x---x---x---x--|
A|--7---7---7---7---7---7---7---7---2---2---2---2---2---2---2---2--|
E|-----------------------------------------------------------------|


e|----------------------------------------|
B|----------------------------------------|
G|---5---5---5---5---5---5---5--/14~-(f)--|
D|---x---x---x---x---x---x---x----x-------|
A|---3---3---3---3---3---3---3--/12~-(f)--|
E|----------------------------------------|


2nd guitar
e|-----------------------------------------------------------------|
B|-----------------------------------------------------------------|
G|--9---9---9---9---9---9---9---9---9---9---9---9---9---9---9---9--|
D|--7---7---7---7---7---7---7---7---7---7---7---7---7---7---7---7--|
A|-----------------------------------------------------------------|
E|-----------------------------------------------------------------|


e|-----------------------------------------------------------------|
B|-----------------------------------------------------------------|
G|--7---7---7---7---7---7---7---7---7---7---7---7---7---7---7---7--|
D|--7---7---7---7---7---7---7---7---7---7---7---7---7---7---7---7--|
A|--5---5---5---5---5---5---5---5---5---5---5---5---5---5---5---5--|
E|-----------------------------------------------------------------|


e|-----------------------------------------------------------------|
B|-----------------------------------------------------------------|
G|-----------------------------------------------------------------|
D|--2---2---2---2---2---2---2---2---2---2---2---2---2---2---2---2--|
A|--2---2---2---2---2---2---2---2---2---2---2---2---2---2---2---2--|
E|-----------------------------------------------------------------|


e|-----------------------------------------------------------------|
B|-----------------------------------------------------------------|
G|--5---5---5---5---5---5---5---5---9---9---9---9---9---9---9---9--|
D|--5---5---5---5---5---5---5---5---7---7---7---7---7---7---7---7--|
A|--3---3---3---3---3---3---3---3----------------------------------|
E|-----------------------------------------------------------------|


e|-----------------------------------------------------------------|
B|-----------------------------------------------------------------|
G|--9---9---9---9---9---9---9---9---9---9---9---9---9---9---9---9--|
D|--7---7---7---7---7---7---7---7---7---7---7---7---7---7---7---7--|
A|-----------------------------------------------------------------|
E|-----------------------------------------------------------------|


e|-----------------------------------------------------------------|
B|-----------------------------------------------------------------|
G|--7---7---7---7---7---7---7---7---7---7---7---7---7---7---7---7--|
D|--7---7---7---7---7---7---7---7---7---7---7---7---7---7---7---7--|
A|--5---5---5---5---5---5---5---5---5---5---5---5---5---5---5---5--|
E|-----------------------------------------------------------------|


e|-----------------------------------------------------------------|
B|-----------------------------------------------------------------|
G|-----------------------------------------------------------------|
D|--2---2---2---2---2---2---2---2---2---2---2---2---2---2---2---2--|
A|--2---2---2---2---2---2---2---2---2---2---2---2---2---2---2---2--|
E|-----------------------------------------------------------------|


e|-----------------------------------------|
B|-----------------------------------------|
G|--5---5---5---5---5---5---5---5---9-(f)--|
D|--5---5---5---5---5---5---5---5---7-(f)--|
A|--3---3---3---3---3---3---3---3----------|
E|-----------------------------------------|


* - harmonic
/ - slide up
 - slide down
f - fade

Other versions of Nebel

NebelChords
Nebel (Ver. 2)Chords
NebelTabs

Almost there ...

Sign in to get your own page with links to favourite songs and more. You are just one click away...

Login with Facebook Login with Google