Search tabs and chords

Search for song, artist or band

Log in

One click and you are in

Login with Facebook Login with Google

Why sign up and log in

Guitar Tabs Explorer
Rammstein bass tabs for Mutter album

Bass tabs with lyrics

Mutter - Rammstein

Tabbed by: Stancranford
E-mail: simonhawkinsuk@gmail.com

-------------------------------------------------------------------------------
                           Track 1 - Mein Herz Brennt
-------------------------------------------------------------------------------

Tuning: CGCF

Main Riff
                            x3
F|----------------------------|-------------------------|
C|----------------------------|-------------------------|
G|----------------------------|-------------------------|
C|-0-0-0-0--0--0-0--0-0-0-0-0-|-0-0-0-0--0--0-0-0-0-5-6-|

Bridge

F|--------------------------------------------------------|
C|--------------------------------------------------------|
G|--------------------------------------------------------|
C|-0-0-0-0--0--0-0--0-0-0-0-0--5-5-5-5--5--5-5--5-5-5-5-5-|

F|--------------------------------------------------------|
C|--------------------------------------------------------|
G|-1-1-1-1--1--1-1--1-1-1-1-1--0-0-0-0--0--0-0--0-0-0-0-0-|
C|--------------------------------------------------------|

F|--------------------------------------------------------|
C|--------------------------------------------------------|
G|--------------------------------------------------------|
C|-0-0-0-0--0--0-0--0-0-0-0-0--5-5-5-5--5--5-5--5-5-5-5-5-|

F|-----------------------------------|
C|-----------------------------------|
G|-1-1-1-1--1--1-1--1-1-1-1-1--0-----|
C|-----------------------------------|

Interlude Fill

F|-------|
C|-------|
G|-------|
C|-2-----|

Interlude

F|--------------------------------------------------------|
C|--------------------------------------------------------|
G|-----------------------------0-0-0-0--0--0-0--0-0-0-0-0-|
C|-2-2-2-2--2--2-2--2-2-2-2-2-----------------------------|

F|--------------------------------------------------------|
C|--------------------------------------------------------|
G|-3-3-3-3--3--3-3--3-3-3-3-3--2-2-2-2--2--2-2--2-2-2-2-2-|
C|--------------------------------------------------------|

F|--------------------------------------------------------|
C|--------------------------------------------------------|
G|-----------------------------0-0-0-0--0--0-0--0-0-0-0-0-|
C|-2-2-2-2--2--2-2--2-2-2-2-2-----------------------------|

F|-----------------------------------------------|
C|-----------------------------------------------|
G|-3-3-3-3--3--3-3--3-3-3-3-3--2-2-2-2--2--2-2---|
C|-----------------------------------------------|

Order:
Synth Intro
Main Riff x 4
Bridge x 1
Main Riff x 3
Bridge x 1
Main Riff x 2
Interlude Fill x 1
Interlude x 1
Main Riff x 2




-------------------------------------------------------------------------------
                           Track 2 - Links 2 3 4
-------------------------------------------------------------------------------

Tuning: EADG

Main Riff

G|------------------------------|
D|------------------------------|
A|------------------------------|
E|-0-0-0--0-0-0--0-0-0--3-5-0-6-|

Riff Fill
G|--------------------------------|
D|--------------------------------|
A|--------------------------------|
E|-0-0-0--0-0-0--0-0-0--3-3-6-6-6-|

Chorus

G|-------------------------------------------|
D|-------------------------------------------|
A|-------------------------------------------|
E|-0-0-0-0--3-3-3-3--5-5-5-5-5-5-5-5-5-5-6-6-|

Order:
Sample Intro
Main Riff x 3
Riff Fill x 1
Main Riff x 22
Chorus x 2
Rest
Main Riff x 12
Chorus x 4



-------------------------------------------------------------------------------
                           Track 3 - Sonne
-------------------------------------------------------------------------------

Tuning: DADG

Main Riff

G|--------------------------------------------------------|
D|--------------------------------------------------------|
A|--------------------------------------------------------|
D|-0--6-0-6-5-0--0--6-0-6-5--0--6-0-6-5-0--0--6-0-6-5-5-5-|

Verse Riff

G|--------------------------|
D|--------------------------|
A|--------------------------|
D|-0--6-0-6-5-0--0--6-0-6-5-|

Chorus
                               x2                               x2
G|--------------------------------|--------------------------------|
D|---------2----2--0----0---------|-2----2-------------------------|
A|-2----2------------------3----3-|---------2----2-----------------|
D|--------------------------------|-----------------5----5--4----4-|



Order:
Synth Intro
Main Riff x 2
Rest
Verse Riff x 1
Rest
Verse Riff x 1
Rest
Verse Riff x 1
Rest
Chorus x 1
Main Riff x 1
Rest
Verse Riff x 3
Rest
Chorus x 2
Rest
Chorus x 2



-------------------------------------------------------------------------------
                           Track 4 - Ich Will
-------------------------------------------------------------------------------

Tuning: DADG

Main Riff

G|-------------------------------|
D|-------------------------------|
A|---5-------5----5-----5-----5--|
D|-0---0-0-0----0---0-0---0-0----|

Bridge

G|--------------------------------|
D|--------------------------------|
A|---5-------5--------------------|
D|-0---0-0-0----5-5-5--3-3-3--0-0-|

Fill

G|---------------|
D|---------------|
A|---5-------5---|
D|-0---0-0-0-----|

Chorus

G|--------------------------------------------------------------------|
D|--------------------------------------------------------------------|
A|--------------------------------------------------------------------|
D|-0-0-0-0-0-0-0-0-8-8-8-5-5-5-7-7-0-0-0-0-0-0-0-0-8-8-8-10-10-10-7-7-|

Order:
Synth Intro
Main Riff x 3
Bridge x 1
Main Riff x 11
Bridge x 1
Main Riff x 4
Fill x 1
Rest
Fill x 1
Rest
Fill x 1
Rest
Fill x 1
Rest
Chorus x 4
Main Riff x 3
Bridge x 1
Rest
Chorus x 4
Main Riff x 1
Bridge x 1




-------------------------------------------------------------------------------
                           Track 5 - Feuer Frei!
-------------------------------------------------------------------------------

Tuning: EADG

Intro

G|-----------|
D|-----------|
A|-----------|
E|-3---------|

Main Riff

G|---------------------------------|
D|---------------------------------|
A|-------------------------------3-|
E|-3h4-3-3h4-3-3h4-3-3h4-3-6-6-6---|

Bridge

G|---------------------------------|
D|---------------------------------|
A|-5-5-5-5-5-5-5-5-4-4-4-4---------|
E|-------------------------6-6-6-6-|

Outro

G|------------------------------------|
D|------------------------------------|
A|-5-5-5-5-5-5-5-5-4-4-4-4------------|
E|-------------------------6-6-6-6-3--|

Order:
Synth Intro
Intro x 1
Rest
Main Riff x 18
Bridge x 1
Main Riff x 3
Bridge x 1
Main Riff x 13
Rest
Main Riff x 2
Bridge x 1
Main Riff x 2
Bridge x 1
Main Riff x 3
Bridge x 2
Outro x 1



-------------------------------------------------------------------------------
                           Track 6 - Mutter
-------------------------------------------------------------------------------

Tuning: BEADG

Chorus 1

G|-------------------------------|
D|-------------------------------|
A|-------------------------------|
E|-0-------3---5-----------------|
B|------------------3----0-------|

Verse

G|--------------------------------------|
D|--------------------------------------|
A|--------------------------------------|
E|-0-------2--------------5-------5-----|
B|------------1---3---0-------0---------|

Interlude 1

G|-------------------------------------------------------------|
D|-------------------------------------------------------------|
A|-------------------------------------------------------------|
E|-----------------------------------------------5---3-5-3-2---|
B|-1---1--1--1--3--3--0---0---1---1--1--1--3--3----------------|

Chorus 2

G|-------------------------------|
D|-------------------------------|
A|-------------------------------|
E|-2-------5---7-----------------|
B|------------------5----2-------|

Interlude 2

G|-------------------------------------------------------------|
D|-------------------------------------------------------------|
A|-------------------------------------------------------------|
E|----------------------------------------------------6-6-3-3--|
B|-3---3--3--3--5--5--2---2---3---3--3--3--5--5--2-------------|

End

G|--------|
D|--------|
A|--------|
E|-2------|
B|--------|

Order:
No Bass until 1st Chorus
Chorus 1 x 2
Verse x 4
Chorus 1 x 4
Interlude 1 x 1
Rest
Chorus 2 x 4
Interlude 2 x 1
Chorus 2 x 4
End x 1



-------------------------------------------------------------------------------
                           Track 7 - Spieluhr
-------------------------------------------------------------------------------

Tuning: DADG

Intro

G|----|
D|----|
A|----|
D|-3--|

Main Riff
                  x3
G|-----------------|-----------------|
D|-----------------|-----------------|
A|-----------------|-----------------|
D|-3-0-0-3-0-0-3-0-|-3-0-0-3-0-6-6-6-|

Chorus 1

G|-----------------------------------------------------------------|
D|-----------------------------------------------------------------|
A|-5-5-5-5-5-5-5-5-5-5-5-5-5-5-5-5-3-3-3-3-3-3-3-3-3-3-3-3-3-3-3-3-|
D|-----------------------------------------------------------------|

G|-----------------------------------------------------------------|
D|-----------------------------------------------------------------|
A|-1-1-1-1-1-1-1-1-1-1-1-1-1-3-3-3-----------------0-0-0-0-0-0-0-0-|
D|---------------------------------3-3-3-3-3-3-3-3-----------------|


Bass Fill/Verse Variant

G|-----------------|
D|-----------------|
A|-----------------|
D|-3-0-0-3-0-0-3-0-|

Chorus 2

G|-----------------------------------------------------------------|
D|-----------------------------------------------------------------|
A|-5-5-5-5-5-5-5-5-5-5-5-5-5-5-5-5-0-0-0-0-0-0-0-0-0-0-0-0-0-0-0-0-|
D|-----------------------------------------------------------------|

G|-----------------------------------------------------------------|
D|-----------------------------------------------------------------|
A|-1-1-1-1-1-1-1-1-1-1-1-1-1-1-1-1-----------------0-0-0-0-0-0-0-0-|
D|---------------------------------3-3-3-3-3-3-3-3-----------------|

Guitar Solo

G|-----------------------------------------------------------------|
D|-----------------------------------------------------------------|
A|-5-5-5-5-5-5-5-5-5-5-5-5-5-7-7-8-----------------------------3-3-|
D|---------------------------------8-8-8-8-8-8-8-8-8-8-8-8-8-8-----|

G|-----------------------------------------------------------------|
D|-----------------------------------------------------------------|
A|---------------------------------0-0-0-0-0-0-0-0-0-0-0-0-0-0-0-0-|
D|-3-3-3-3-3-3-3-3-3-3-3-3-3-3-3-5---------------------------------|

Order:
Vocal Intro
Intro x 1
Main Riff x 5
Chorus x 2
Bass Fill x 1
Main Riff x 2
Verse Variant x 3
Rest
Main Riff x 2
Chorus 1 x 2
Chorus 2 x 1
Rest
Guitar Solo x 1
Chorus 1 x 1
Chorus 2 x 2



-------------------------------------------------------------------------------
                           Track 8 - Zwitter
-------------------------------------------------------------------------------

Tuning: DADG

Main Riff

G|--------------------------------|
D|--------------------------------|
A|--------------------------------|
D|-0-0-0-0-0-0-5-3-0-0-0-0-0h1--0-|

Riff Fill

G|-----------------------|
D|-----------------------|
A|-----------------------|
D|-0-0-0-0-0-0-5-3-------|

Chorus

G|-------------------------------------------------|
D|-1-1-1-1-1-1-1-1---------------------------------|
A|-----------------3-3-3-3-3-3-3-3-1-1-1-1-1-1-1-1-|
D|-------------------------------------------------|

G|-------------------------------------------------|
D|-1-1-1-1-1-1-1-1---------------------------------|
A|-----------------3-3-3-3-3-3-3-3-----------------|
D|---------------------------------5-5-5-5-5-5-5-5-|

Breakdown

G|-------------------------------------------------|
D|-1-----------------------------------------------|
A|-----------------3---------------1---------------|
D|-------------------------------------------------|

G|-------------------------------------------------|
D|-1-----------------------------------------------|
A|-----------------3-------------------------------|
D|---------------------------------5---------------|

Order:
Guitar Intro
Main Riff x 15
Riff Fill x 1
Main Riff x 12
Riff Fill x 1
Main Riff x 4
Chorus x 2
Main Riff x 9
Riff Fill x 1
Main Riff x 4
Chorus x 2
Breakdown x 1
Main Riff to fade out

| h  hammer-on



-------------------------------------------------------------------------------
                           Track 9 - Rein Raus
-------------------------------------------------------------------------------

Tuning: DADG

Intro

G|-----------|
D|-----------|
A|-----------|
D|-6-6-------|

Main Riff
                  x3
G|-----------------|------------------|
D|-----------------|------------------|
A|-----------------|------------------|
D|-3-2--2-2--2-3-5-|-3-2--2-2---6-6-6-|

Verse 1

G|----------------------------------------------|
D|----------------------------------------------|
A|----------------------------------------------|
D|-1p0--0-0--1p0--0-0--1p0--0-0--0-1-3-1p0--0-0-|

G|-----------------------------------------------------|
D|-----------------------------------------------------|
A|-----------------------------------------------------|
D|-1p0--0-0--1p0--0-0--1p0--0-0--0-1-3-1p0--0-0--0-1-3-|

Verse 2

G|-----------------------------------------------------------------|
D|-----------------------------------------------------------------|
A|-----------------------------------------------------------------|
D|-1p0--0-0--0-0-0-1p0--0-0--0-0-0-1p0--0-0--0-1-3-1p0--0-0--0-0-0-|

G|-----------------------------------------------------------------|
D|-----------------------------------------------------------------|
A|-----------------------------------------------------------------|
D|-1p0--0-0--0-1-3-1p0--0-0--0-1-3-1p0--0-0--0-1-3-1p0--0-0--0-1-3-|

Bridge

G|----------------------------------------------|
D|----------------------------------------------|
A|-0-----------3-2--2-2--2-3-5--3-2--2-2--2-3-5-|
D|-------5--------------------------------------|

G|------------------------------------------------------------------------------------|
D|------------------------------------------------------------------------------------|
A|-0-----------3-2--2-2--2-3-5--3-2--2-2--2-3-5--3-2--2-2--2-3-5--3-2--2-2--2-3-5--0--|
D|-------5----------------------------------------------------------------------------|

Interlude 1
            x2
G|-----------|------|
D|-----------|------|
A|-----------|------|
D|-2-2-------|-2----|

Interlude 2

G|-----------------|
D|-----------------|
A|-----------------|
D|-6-5--5-5--5-6-8-|

Order:
Synth Intro
Intro x 1
Main Riff x 2
Verse 1 x 1
Main Riff x 2
Verse 2 x 1
Rest
Main Riff x 2
Bridge x 1
Rest
Interlude 1 x 1
Main Riff x 2
Interlude 2 x 8
Main Riff x 2

| p  pull-off



-------------------------------------------------------------------------------
                           Track 10 - Adios
-------------------------------------------------------------------------------

Tuning: DADG

Main Riff

G|-------------------------------------------------------|
D|---3-0-------------------------------------------------|
A|-3-----------------3h5-------------3h5-----------------|
D|-------0-0-0-0-0-0-----0-0-0-0-0-0-----0-0-0-0-0-0-0-0-|

Fill 1

G|--------|
D|---3-0--|
A|-3------|
D|--------|

Verse

G|---------------------------------|
D|---------------------------------|
A|---------------------------------|
D|-0-0-0-0-0-0-0-0-3-3-3-3-3-3-5-5-|

Alternate Main Riff

G|-----------------------------------------------------|
D|-----------------------------------------------------|
A|-3h5-------------3h5-------------3h5-----------------|
D|-----0-0-0-0-0-0-----0-0-0-0-0-0-----0-0-0-0-0-0-0-0-|

Chorus

G|---------------------------------------------------------------------|
D|---------------------------------------------------------------------|
A|-1-1-1-1-1-1-1-1-----------------------------------------------3-3-3-|
D|-----------------3-3-3-3-3-3-5-5-0-0-0-0-0-0-0-0-0-0-0-0-0-0-0-------|

Breakdown

G|-------------------------------------------------|
D|-------------------------------------------------|
A|-------------------------------------------------|
D|-0--------0--------0---0---0--0--0-0-0-0-0-0-0-0-|

Interlude

G|---------------------------------------|
D|---------------------------------------|
A|-1-------------------------------------|
D|--------------5-----------0------------|

Outro

G|-----------------------------------|
D|-----------------------------------|
A|-1--1------------------------------|
D|---------3--3--3-5-5-5--0----------|

Order:
Guitar Intro
Main Riff x 4
Fill 1 x 1
Verse x 4
Alternative Main Riff x 1
Main Riff x 2
Fill 1 x 1
Verse x 4
Alternative Main Riff x 1
Main Riff x 3
Fill 1 x 1
Rest
Chorus x 2
Breakdown x 1
Alternative Main Riff x 1
Main Riff x 3
Fill 1 x 1
Verse x 4
Interlude x 1
Chorus x 4
Outro x 1

| h  hammer-on



-------------------------------------------------------------------------------
                           Track 11 - Nebel
-------------------------------------------------------------------------------

Tuning: DADG

Chorus

G|---------------------------------------------------------------------|
D|-----------------------------------0-0-0-0-0-0-0---0-0-0-0-0-0-0-0-0-|
A|---0-0-0-0-0-0-0---0-0-0-0-0-0-0-3---------------3-------------------|
D|-5---------------5---------------------------------------------------|

G|-----------------------------------------------------------------|
D|-0-2-2-2-2-2-2-2-------------------------------------------------|
A|-----------------2-2-2-2-2-2-2-2-3-3-3-3-3-3-3-3---0-0-0-0-0-0-0-|
D|-------------------------------------------------5---------------|

Verse

G|-----------------------------------------------------------------|
D|-----------------------------------------------------------------|
A|---0-0-0-0-0-0-0-3-0-0-0-0-0-0-0---0-0-0-0-0-0-0---0-0-0-0-0-0-0-|
D|-5-------------------------------5---------------5---------------|

Bridge

G|-----------------------------------------------------------------|
D|-----------------------------------------------------------------|
A|---0-0-0-0-0-0-0-3-0-0-0-0-0-0-0---------------------------------|
D|-5-------------------------------3-3-3-3-3-3-3-3-0-0-0-0-0-0-0-0-|

Outro

G|---------------------------------------------------------------------|
D|-----------------------------------0-0-0-0-0-0-0---0-0-0-0-0-0-0-0-0-|
A|---0-0-0-0-0-0-0---0-0-0-0-0-0-0-3---------------3-------------------|
D|-5---------------5---------------------------------------------------|

G|-----------------------------------------------------------|
D|-0-2-2-2-2-2-2-2-------------------------------------------|
A|-----------------2-2-2-2-2-2-2-2-3-3-3-3-3-3-3-3-0---------|
D|-----------------------------------------------------------|

Order
No Bass until 1st Chorus
Chorus x 1
Verse x 3
Bridge x 1
Chorus x 6
Outro x 1

Other versions of Mutter Album

MutterBass tabs

Almost there ...

Sign in to get your own page with links to favourite songs and more. You are just one click away...

Login with Facebook Login with Google