Search tabs and chords

Search for song, artist or band

Log in

One click and you are in

Login with Facebook Login with Google

Why sign up and log in

Guitar Tabs Explorer
Rammstein guitar tabs for Morgenstern

Guitar tabs

-------------------------------------------------------------------------------
			 Morgenstern - Rammstein
-------------------------------------------------------------------------------
Tabbed by: Astrozombie138

Tuning: Drop D chord diagramDD whole step down(CGCFAD)

(intro/verse)
D|---------------------------------------------------------------------------|
A|---------------------------------------------------------------------------|
F| chord diagramF|F|---------------------------------------------------------------------------|
C| chord diagramC|C|---------------------------------------------------------------------------|
G|--3-0-----3-0-3-0----3-0-------3-0-3-0-0-0---------------------------------|
C| chord diagramC|C|--3-0-----3-0-3-0----3-0-------3-0-3-0-0-0---------------------------------|
(PM). .     . . . .    . .       . . . . . .

(pre-chorus)
D|---------------------------------------------------------------------------|
A|---------------------------------------------------------------------------|
F| chord diagramF|F|--6-6-6-6-6-6-6-6-6-6-6-6-6--10-10-10-10-10-10-10-10-10-10-10-10-10--------|
C| chord diagramC|C|--x-x-x-x-x-x-x-x-x-x-x-x-x--x--x--x--x--x--x--x--x--x--x--x--x--x---------|
G|--4-4-4-4-4-4-4-4-4-4-4-4-4--8--8--8--8--8--8--8--8--8--8--8--8--8---------|
C| chord diagramC|C|---------------------------------------------------------------------------|

(chorus a)
D|---------------------------------------------------------------------------|
A|---------------------------------------------------------------------------|
F| chord diagramF|F|---------------------------------------------------------------------------|
C| chord diagramC|C|--12-12-12-12-12-12-12-12-11-11-11-11-11-11-11-11--------------------------|
G|--12-12-12-12-12-12-12-12-11-11-11-11-11-11-11-11--------------------------|
C| chord diagramC|C|--12-12-12-12-12-12-12-12-11-11-11-11-11-11-11-11--------------------------|

D|---------------------------------------------------------------------------|
A|---------------------------------------------------------------------------|
F| chord diagramF|F|---------------------------------------------------------------------------|
C| chord diagramC|C|--7-7-7-7-7-7-7-7-7-7-7-7-7-7-7-7--8-8-8-8-8-8-8-8-8-8-8-8-8-8-8-8-8-------|
G|--7-7-7-7-7-7-7-7-7-7-7-7-7-7-7-7--8-8-8-8-8-8-8-8-8-8-8-8-8-8-8-8-8-------|
C| chord diagramC|C|--7-7-7-7-7-7-7-7-7-7-7-7-7-7-7-7--8-8-8-8-8-8-8-8-8-8-8-8-8-8-8-8-8-------|

D|---------------------------------------------------------------------------|
A|---------------------------------------------------------------------------|
F| chord diagramF|F|---------------------------------------------------------------------------|
C| chord diagramC|C|--5-5-5-5-5-5-5-5-5-5-5-5-5-5-5-5------------------------------------------|
G|--5-5-5-5-5-5-5-5-5-5-5-5-5-5-5-5------------------------------------------|
C| chord diagramC|C|--5-5-5-5-5-5-5-5-5-5-5-5-5-5-5-5------------------------------------------|

(chorus b)
D|---------------------------------------------------------------------------|
A|---------------------------------------------------------------------------|
F| chord diagramF|F|---------------------------------------------------------------------------|
C| chord diagramC|C|--8-8-8-8-8-8-8-8--10-10-10-10-10-10-10-10---------------------------------|
G|--8-8-8-8-8-8-8-8--10-10-10-10-10-10-10-10---------------------------------|
C| chord diagramC|C|--8-8-8-8-8-8-8-8--10-10-10-10-10-10-10-10---------------------------------|

(post-chorus)
D|---------------------------------------------------------------------------|
A|---------------------------------------------------------------------------|
F| chord diagramF|F|---------------------------------------------------------------------------|
C| chord diagramC|C|---------------------------------------------------------------------------|
G|--3p0-0-0-0-0-0-0-0-0-3p0-3p0-0-0-3p0-0-0-0-0-0-0-0-0-3p0-0-0--------------|
C| chord diagramC|C|--3p0-0-0-0-0-0-0-0-0-3p0-3p0-0-0-3p0-0-0-0-0-0-0-0-0-3p0-0-0--------------|
(PM)    . . . . . . . .         . .     . . . . . . . .     . .

(outro)
D|---------------------------------------------------------------------------|
A|---------------------------------------------------------------------------|
F| chord diagramF|F|---------------------------------------------------------------------------|
C| chord diagramC|C|---------------------------------------------------------------------------|
G|--3-0----3-0-3-0-0-0-3-0---------------------------------------------------|
C| chord diagramC|C|--3-0----3-0-3-0-0-0-3-0---------------------------------------------------|
(PM). .    . . . . . . . .

order:
intro/verse    6x
pre-chorus     1x
chorus a       2x
chorus b       1x
verse          6x
chorus a       2x
chorus b       1x
chorus a       2x
chorus b       1x
post-chorus    4x
chorus b       1x
chorus a       2x
chorus b       1x
chorus a       2x
chorus b       1x
outro          1x


| PM Palm mute
| /  slide up
| \  slide down
| h  hammer-on
| p  pull-off
| ~  vibrato
| +  harmonic
| x  Mute note

Almost there ...

Sign in to get your own page with links to favourite songs and more. You are just one click away...

Login with Facebook Login with Google