Log in

One click and you are in

Login with Facebook Login with Google

Why sign up and log in

Guitar Tabs Explorer
Rammstein tabs for Mehr

Guitar tabs

Rammstein
"MEHR"
Liebe ist für alle da (2009)

Tuning: Drop A chord diagramD MajorD
[E-B-G-D-A-D]


INTRO & CHORUS

Both Guitars
A chord diagramE MajorE||------------------------------|-------------------------------|
A chord diagramBB||------------------------------|-------------------------------|
A chord diagramG+G||*-----------------------------|-------------------------------|
A chord diagramD MajorD||*-6----------6----------6--7--|--6----------6----------6------|
A chord diagramA augmentedA||--6----------6----------6--7--|--6----------6----------6------|
A chord diagramD MajorD||--6--0-0-0-0-6--0-0-0-0-6--7--|--6--0-0-0-0-6--0-0-0-0-6--0-0-|
PM      . . . .    . . . .             . . . .    . . . .    . .

|------------------------------|--------------------------------||
|------------------------------|--------------------------------||
|------------------------------|-------------------------------*||
|--6----------6----------6--7--|--6----------6-----------------*||
|--6----------6----------6--7--|--6----------6------------------||
|--6--0-0-0-0-6--0-0-0-0-6--7--|--6--0-0-0-0-6--0-0-0-0-0-0-0-0-||
PM    . . . .    . . . .             . . . .    . . . . . . . .




CHORUS VARIATION

Guitar I
(tremolo picking)
A chord diagramE MajorE||------------------------------|-------------------------------|
A chord diagramBB||------------------------------|-------------------------------|
A chord diagramG+G||--14--------------------------|--13---------------------------|
A chord diagramD MajorD||--X---------------------------|--x----------------------------|
A chord diagramA augmentedA||--12--------------------------|--11---------------------------|
A chord diagramD MajorD||------------------------------|-------------------------------|

|------------------------------|--------------------------------||
|------------------------------|--------------------------------||
|--14--------------------------|--17----------------------------||
|--X---------------------------|--x-----------------------------||
|--12--------------------------|--15----------------------------||
|------------------------------|--------------------------------||

Guitar II
A chord diagramE MajorE||------------------------------|-------------------------------|
A chord diagramBB||------------------------------|-------------------------------|
A chord diagramG+G||------------------------------|-------------------------------|
A chord diagramD MajorD||--6----------6----------6--7--|--6----------6----------6------|
A chord diagramA augmentedA||--6----------6----------6--7--|--6----------6----------6------|
A chord diagramD MajorD||--6--0-0-0-0-6--0-0-0-0-6--7--|--6--0-0-0-0-6--0-0-0-0-6--0-0-|
PM      . . . .    . . . .             . . . .    . . . .    . .

|------------------------------|--------------------------------||
|------------------------------|--------------------------------||
|------------------------------|--------------------------------||
|--6----------6----------6--7--|--6----------6------------------||
|--6----------6----------6--7--|--6----------6------------------||
|--6--0-0-0-0-6--0-0-0-0-6--7--|--6--0-0-0-0-6--0-0-0-0-0-0-0-0-||
PM    . . . .    . . . .             . . . .    . . . . . . . .


Guitar I
A chord diagramE MajorE||------------------------------|-------------------------------|
A chord diagramBB||------------------------------|-------------------------------|
A chord diagramG+G||--14--------------------------|--13---------------------------|
A chord diagramD MajorD||--X---------------------------|--x----------------------------|
A chord diagramA augmentedA||--12--------------------------|--11---------------------------|
A chord diagramD MajorD||------------------------------|-------------------------------|

|--------------------------------|------------------------------||
|--------------------------------|------------------------------||
|--7-----------------------------|--7---------------------------||
|--X-----------------------------|--x---------------------------||
|--5-----------------------------|--5---------------------------||
|--------------------------------|------------------------------||


Guitar II
A chord diagramE MajorE||------------------------------|-------------------------------|
A chord diagramBB||------------------------------|-------------------------------|
A chord diagramG+G||------------------------------|-------------------------------|
A chord diagramD MajorD||--6----------6----------6--7--|--6----------6----------6------|
A chord diagramA augmentedA||--6----------6----------6--7--|--6----------6----------6------|
A chord diagramD MajorD||--6--0-0-0-0-6--0-0-0-0-6--7--|--6--0-0-0-0-6--0-0-0-0-6--0-0-|
PM      . . . .    . . . .             . . . .    . . . .    . .

|------------------------------|--------------------------------||
|------------------------------|--------------------------------||
|------------------------------|--------------------------------||
|--6----------6----------6--7--|--6----------6------------------||
|--6----------6----------6--7--|--6----------6------------------||
|--6--0-0-0-0-6--0-0-0-0-6--7--|--6--0-0-0-0-6--0-0-0-0-0-0-0-0-||
PM    . . . .    . . . .             . . . .    . . . . . . . .




BRIDGE: (bin nie zufrieden, es gibt kein ziel...)

Guitar I
A chord diagramE MajorE||-------------------|-------------------|-------------------|---------------------------|
A chord diagramBB||-------9-----------|-------------------|-------------------|---------------------------|
A chord diagramG+G||----8--------------|-------------------|-------------------|---------------------------|
A chord diagramD MajorD||-6-----------------|-------------------|-------------------|---------------------------|
A chord diagramA augmentedA||-------------------|-------------------|-------------------|---------------------------|
A chord diagramD MajorD||-------------------|-------------------|-------------------|---------------------------|


Guitar II
A chord diagramE MajorE||-------------------|-------------------|-------------------|--------------------------||
A chord diagramBB||-------------------|-------------------|-------------------|--------------------------||
A chord diagramG+G||-------------------|-------------------|-------------------|--------------------------||
A chord diagramD MajorD||-6--6--6--6--6-6-6-|-6--6--6--6--6-6-6-|-6--6--6--6--6-6-6-|-11--11--11--11--11-11-11-||
A chord diagramA augmentedA||-6--6--6--6--6-6-6-|-6--6--6--6--6-6-6-|-6--6--6--6--6-6-6-|-11--11--11--11--11-11-11-||
A chord diagramD MajorD||-6--6--6--6--6-6-6-|-6--6--6--6--6-6-6-|-6--6--6--6--6-6-6-|-11--11--11--11--11-11-11-||


Guitar I
|-------------------|--------------------------|-------------------|--------------------|
|-------9-----------|--------------------------|-------------------|--------------------|
|----8--------------|--------------------------|-------------------|--------------------|
|-6-----------------|--------------------------|-------------------|--------------------|
|-------------------|--------------------------|-------------------|--------------------|
|-------------------|--------------------------|-------------------|--------------------|


Guitar II
|-------------------|--------------------------|-------------------|-------------------||
|-------------------|--------------------------|-------------------|-------------------||
|-------------------|--------------------------|-------------------|-------------------||
|-3--3--3--3--3-3-3-|-11--11--11--11--11-11-11-|-6--6--6--6--6-6-6-|-6--6--6--6--6-6-6-||
|-3--3--3--3--3-3-3-|-11--11--11--11--11-11-11-|-6--6--6--6--6-6-6-|-6--6--6--6--6-6-6-||
|-3--3--3--3--3-3-3-|-11--11--11--11--11-11-11-|-6--6--6--6--6-6-6-|-6--6--6--6--6-6-6-||


Guitar I
A chord diagramE MajorE||-------------------|-------------------|-------------------|---------------------------|
A chord diagramBB||-------9----(9)----|-------9----(9)----|-------9----(9)----|-------9----(9)------------|
A chord diagramG+G||----8-----8----(8)-|----8-----8----(8)-|----8-----8----(8)-|----8-----8----(8)---------|
A chord diagramD MajorD||-6-----------------|-6-----------------|-6-----------------|-6-------------------------|
A chord diagramA augmentedA||-------------------|-------------------|-------------------|---------------------------|
A chord diagramD MajorD||-------------------|-------------------|-------------------|---------------------------|


Guitar II
A chord diagramE MajorE||-------------------|-------------------|-------------------|--------------------------||
A chord diagramBB||-------------------|-------------------|-------------------|--------------------------||
A chord diagramG+G||-------------------|-------------------|-------------------|--------------------------||
A chord diagramD MajorD||-6--6--6--6--6-6-6-|-6--6--6--6--6-6-6-|-6--6--6--6--6-6-6-|-11--11--11--11--11-11-11-||
A chord diagramA augmentedA||-6--6--6--6--6-6-6-|-6--6--6--6--6-6-6-|-6--6--6--6--6-6-6-|-11--11--11--11--11-11-11-||
A chord diagramD MajorD||-6--6--6--6--6-6-6-|-6--6--6--6--6-6-6-|-6--6--6--6--6-6-6-|-11--11--11--11--11-11-11-||


Guitar I
|-------------------|--------------------------|-------------------|--------------------|
|-------9----(9)----|-------9----(9)-----------|-------9----(9)----|-------9----(9)-----|
|----8-----8----(8)-|----8-----8----(8)--------|----8-----8----(8)-|----8-----8----(8)--|
|-6-----------------|-6------------------------|-6-----------------|-6------------------|
|-------------------|--------------------------|-------------------|--------------------|
|-------------------|--------------------------|-------------------|--------------------|


Guitar II
|-------------------|--------------------------|-------------------|-------------------||
|-------------------|--------------------------|-------------------|-------------------||
|-------------------|--------------------------|-------------------|-------------------||
|-3--3--3--3--3-3-3-|-11--11--11--11--11-11-11-|-6--6--6--6--6-6-6-|-6--6--6--6--6-6-6-||
|-3--3--3--3--3-3-3-|-11--11--11--11--11-11-11-|-6--6--6--6--6-6-6-|-6--6--6--6--6-6-6-||
|-3--3--3--3--3-3-3-|-11--11--11--11--11-11-11-|-6--6--6--6--6-6-6-|-6--6--6--6--6-6-6-||


Both Guitars
A chord diagramE MajorE||-------|-------|-------|--------|-------|--------|-------|-------||
A chord diagramBB||-------|-------|-------|--------|-------|--------|-------|-------||
A chord diagramG+G||*------|-------|-------|--------|-------|--------|-------|------*||
A chord diagramD MajorD||*-6----|--6----|--6----|--11----|--3----|--11----|--6----|--6---*||
A chord diagramA augmentedA||--6----|--6----|--6----|--11----|--3----|--11----|--6----|--6----||
A chord diagramD MajorD||--6----|--6----|--6----|--11----|--3----|--11----|--6----|--6----||


LAST CHORUS

Both Guitars
A chord diagramE MajorE||------------------------------|-------------------------------|
A chord diagramBB||------------------------------|-------------------------------|
A chord diagramG+G||*-----------------------------|-------------------------------|
A chord diagramD MajorD||*-6----------6----------6--7--|--6----------6----------6------|
A chord diagramA augmentedA||--6----------6----------6--7--|--6----------6----------6------|
A chord diagramD MajorD||--6--0-0-0-0-6--0-0-0-0-6--7--|--6--0-0-0-0-6--0-0-0-0-6--0-0-|
PM      . . . .    . . . .             . . . .    . . . .    . .

|------------------------------|--------------------------------||
|------------------------------|--------------------------------||
|------------------------------|-------------------------------*||
|--6----------6----------6--7--|--6----------6-----------------*||
|--6----------6----------6--7--|--6----------6------------------||
|--6--0-0-0-0-6--0-0-0-0-6--7--|--6--0-0-0-0-6--0-0-0-0-0-0-0-0-||
PM    . . . .    . . . .             . . . .    . . . . . . . .

Almost there ...

Sign in to get your own page with links to favourite songs and more. You are just one click away...

Login with Facebook Login with Google