Log in

One click and you are in

Login with Facebook Login with Google

Why sign up and log in

Guitar Tabs Explorer
Rammstein guitar chords for Los (Ver.  2)

Guitar chords

A chord diagramC majorC

Riff 1 - Parte 1:


D|----------------|
A|----------------|
F|----------------|
C|----1---3-----0-|  Repete 3x
G|----1---3-----5-|
C|0-0-1-0-3-0-0-0-|

Parte 2:


D|----------------|
A|----------------|
F|----------------|
C|----1---3h5-5-5-|
G|----1---3h5-5-5-|
C|0-0-1-0-3h5-5-5-|




Riff 2 (Variação):


D|-------------------------|
A|-3-----------------------|
F|---5---------------------|
C|-----3-----------3-------|
G|-------5---3-5-3---5-3-5-|
C|-------------------------|




Riff 3 (Solo):

D|-10~~ ----------------------|

A|------13-1013~ 10~~ --------|
F|----------------------------|
C|----------------------------|
G|----------------------------|
C|----------------------------|

Other versions of Los

LosChords
LosTabs
Los (Ver. 2)Tabs
Los (Ver. 3)Tabs
Los - soloChords

Almost there ...

Sign in to get your own page with links to favourite songs and more. You are just one click away...

Login with Facebook Login with Google